   0
SECTION
   2
HEADER
   9
$ACADVER
   1
AC1009
   9
$EXTMIN
  10
-129.239720
  20
102.370243
   9
$EXTMAX
  10
163.744655
  20
-96.848507
   9
$INSBASE
  10
0.000000
  20
0.000000
  30
0.000000
   9
$LIMMIN
  10
0.000000
  20
0.000000
   9
$LIMMAX
  10
410.000000
  20
287.000000
   9
$ORTHOMODE
  70
     0
   9
$REGENMODE
  70
     1
   9
$FILLMODE
  70
     1
   9
$QTEXTMODE
  70
     0
   9
$MIRRTEXT
  70
     1
   9
$DRAGMODE
  70
     2
   9
$LTSCALE
  40
25.000000
   9
$TILEMODE
  70
     1
   9
$OSMODE
  70
     0
   9
$ATTMODE
  70
     1
   9
$TEXTSIZE
  40
3.500000
   9
$TRACEWID
  40
1.000000
   9
$TEXTSTYLE
   7
STANDARD
   9
$CLAYER
   8
0
   9
$CELTYPE
   6
BYLAYER
   9
$CECOLOR
  62
   256
   9
$DIMSCALE
  40
1.000000
   9
$DIMASZ
  40
3.500000
   9
$DIMEXO
  40
0.100000
   9
$DIMDLI
  40
7.000000
   9
$DIMRND
  40
0.000000
   9
$DIMDLE
  40
0.000000
   9
$DIMEXE
  40
1.800000
   9
$DIMTP
  40
0.000000
   9
$DIMTM
  40
0.000000
   9
$DIMTXT
  40
3.500000
   9
$DIMCEN
  40
0.090000
   9
$DIMTSZ
  40
0.000000
   9
$DIMTOL
  70
     0
   9
$DIMLIM
  70
     0
   9
$DIMTIH
  70
     0
   9
$DIMTOH
  70
     0
   9
$DIMSE1
  70
     0
   9
$DIMSE2
  70
     0
   9
$DIMTAD
  70
     1
   9
$DIMZIN
  70
     0
   9
$DIMBLK
   1

   9
$DIMASO
  70
     1
   9
$DIMSHO
  70
     0
   9
$DIMPOST
   1

   9
$DIMAPOST
   1

   9
$DIMALT
  70
     0
   9
$DIMALTD
  70
     2
   9
$DIMALTF
  40
25.400000
   9
$DIMLFAC
  40
1.000000
   9
$DIMTOFL
  70
     0
   9
$DIMTVP
  40
0.0
   9
$DIMTIX
  70
     0
   9
$DIMSOXD
  70
     0
   9
$DIMSAH
  70
     0
   9
$DIMBLK1
   1

   9
$DIMBLK2
   1

   9
$DIMSTYLE
   2
*UNNAMED
   9
$DIMCLRD
  70
     0
   9
$DIMCLRE
  70
     0
   9
$DIMCLRT
  70
     0
   9
$DIMTFAC
  40
1.0
   9
$DIMGAP
  40
0.09
   9
$LUNITS
  70
     2
   9
$LUPREC
  70
     4
   9
$AXISMODE
  70
     0
   9
$AXISUNIT
  10
0.000000
  20
0.000000
   9
$SKETCHINC
  40
0.100000
   9
$FILLETRAD
  40
0.000000
   9
$AUNITS
  70
     0
   9
$AUPREC
  70
     0
   9
$MENU
   1
acad
   9
$ELEVATION
  40
0.000000
   9
$THICKNESS
  40
0.000000
   9
$LIMCHECK
  70
     0
   9
$BLIPMODE
  70
     1
   9
$CHAMFERA
  40
0.000000
   9
$CHAMFERB
  40
0.000000
   9
$SKPOLY
  70
     0
   9
$TDCREATE
  40
2448030.426811
   9
$TDUPDATE
  40
2448030.426811
   9
$TDINDWG
  40
0.000000
   9
$TDUSRTIMER
  40
0.000000
   9
$USRTIMER
  70
     1
   9
$ANGBASE
  50
0.000000
   9
$ANGDIR
  70
     0
   9
$PDMODE
  70
     0
   9
$PDSIZE
  40
0.000000
   9
$PLINEWID
  40
0.000000
   9
$COORDS
  70
     2
   9
$SPLFRAME
  70
     0
   9
$SPLINESEGS
  70
     8
   9
$ATTDIA
  70
     0
   9
$ATTREQ
  70
     1
   9
$HANDLING
  70
     0
   9
$HANDSEED
   5
     0
   9
$SURFTAB1
  70
     6
   9
$SURFTAB2
  70
     6
   9
$SURFTYPE
  70
     6
   9
$SURFU
  70
     6
   9
$SURFV
  70
     6
   9
$FLATLAND
  70
     0
   9
$UCSNAME
   2

   9
$UCSORG
  10
0.0
  20
0.0
  30
0.0
   9
$UCSXDIR
  10
1.0
  20
0.0
  30
0.0
   9
$UCSYDIR
  10
0.0
  20
1.0
  30
0.0
   9
$USERI1
  70
     0
   9
$USERI2
  70
     0
   9
$USERI3
  70
     0
   9
$USERI4
  70
     0
   9
$USERI5
  70
     0
   9
$USERR1
  40
0.000000
   9
$USERR2
  40
0.000000
   9
$USERR3
  40
0.000000
   9
$USERR4
  40
0.000000
   9
$USERR5
  40
0.000000
   9
$UNITMODE
  70
     0
   0
ENDSEC
   0
SECTION
   2
TABLES
   0
TABLE
   2
LTYPE
  70
     1
   0
LTYPE
   2
CONTINUOUS
  70
    64
   3
Solid line
  72
    65
  73
     0
  40
0.0
   0
LTYPE
   2
RAND
  70
    64
   3
__ __ . __ __ . __ __ . __ __ . __ __ . __ __ .
  72
    65
  73
     6
  40
1.750000
  49
0.500000
  49
-0.250000
  49
0.500000
  49
-0.250000
  49
0.000000
  49
-0.250000
   0
LTYPE
   2
STRICHPUNKT
  70
    64
   3
__ . __ . __ . __ . __ . __ . __ . __ . __ . __
  72
    65
  73
     4
  40
1.000000
  49
0.500000
  49
-0.250000
  49
0.000000
  49
-0.250000
   0
LTYPE
   2
STRICHPUNKTX2
  70
    64
   3
____  .  ____  .  ____  .  ____  .  ____  .  __
  72
    65
  73
     4
  40
2.000000
  49
1.000000
  49
-0.500000
  49
0.000000
  49
-0.500000
   0
LTYPE
   2
GESTRICHELT
  70
    64
   3
__ __ __ __ __ __ __ __ __ __ __ __ __ __ __ __
  72
    65
  73
     2
  40
0.750000
  49
0.500000
  49
-0.250000
   0
LTYPE
   2
GESTRICHELT2
  70
    64
   3
_ _ _ _ _ _ _ _ _ _ _ _ _ _ _ _ _ _ _ _ _ _ _ _
  72
    65
  73
     2
  40
0.375000
  49
0.250000
  49
-0.125000
   0
LTYPE
   2
GESTRICHELTX2
  70
    64
   3
____  ____  ____  ____  ____  ____  ____  ____ 
  72
    65
  73
     2
  40
1.500000
  49
1.000000
  49
-0.500000
   0
LTYPE
   2
GETRENNT
  70
    64
   3
____ . . ____ . . ____ . . ____ . . ____ . . __
  72
    65
  73
     6
  40
1.250000
  49
0.500000
  49
-0.250000
  49
0.000000
  49
-0.250000
  49
0.000000
  49
-0.250000
   0
LTYPE
   2
GETRENNT2
  70
    64
   3
__..__..__..__..__..__..__..__..__..__..__..__.
  72
    65
  73
     6
  40
0.625000
  49
0.250000
  49
-0.125000
  49
0.000000
  49
-0.125000
  49
0.000000
  49
-0.125000
   0
LTYPE
   2
GETRENNTX2
  70
    64
   3
________  .  .  ________  .  .  ________  .  . 
  72
    65
  73
     6
  40
2.500000
  49
1.000000
  49
-0.500000
  49
0.000000
  49
-0.500000
  49
0.000000
  49
-0.500000
   0
LTYPE
   2
PUNKT
  70
    64
   3
. . . . . . . . . . . . . . . . . . . . . . . .
  72
    65
  73
     2
  40
0.250000
  49
0.000000
  49
-0.250000
   0
ENDTAB
   0
TABLE
   2
LAYER
   0
LAYER
   2
HILFSLINIEN
  70
     0
  62
     7
   6
CONTINUOUS
   0
LAYER
   2
BEMASSUNG
  70
     0
  62
     7
   6
CONTINUOUS
   0
LAYER
   2
LAYER1
  70
     0
  62
     7
   6
CONTINUOUS
   0
ENDTAB
   0
TABLE
   2
STYLE
  70
     1
   0
STYLE
   2
STANDARD
  70
     0
  40
0.0
  41
1.0
  50
0.0
  71
     0
  42
3.5
   3
txt.shx
   4

   0
STYLE
   2
ROMANS
  70
     0
  40
0.0
  41
1.0
  50
0.0
  71
     0
  42
3.5
   3
romans
   4

   0
STYLE
   2
ROMANC
  70
     0
  40
0.0
  41
1.0
  50
0.0
  71
     0
  42
3.5
   3
romanc
   4

   0
STYLE
   2
ROMAND
  70
     0
  40
0.0
  41
1.0
  50
0.0
  71
     0
  42
3.5
   3
romand
   4

   0
STYLE
   2
ITALICC
  70
     0
  40
0.0
  41
1.0
  50
0.0
  71
     0
  42
3.5
   3
italicc
   4

   0
STYLE
   2
SCRIPTC
  70
     0
  40
0.0
  41
1.0
  50
0.0
  71
     0
  42
3.5
   3
scriptc
   4

   0
STYLE
   2
GREEKS
  70
     0
  40
0.0
  41
1.0
  50
0.0
  71
     0
  42
3.5
   3
greeks
   4

   0
STYLE
   2
TXT
  70
     0
  40
0.0
  41
1.0
  50
0.0
  71
     0
  42
3.5
   3
txt
   4

   0
ENDTAB
   0
ENDSEC
   0
SECTION
   2
BLOCKS
   0
ENDSEC
   0
SECTION
   2
ENTITIES
   0
LINE
   8
LAYER1
   6
CONTINUOUS
  62
7
  10
2605.5501124208
  20
435.5898324869
  30
0.0000000000
  11
2605.5501124208
  21
88.5898324869
  31
0.0000000000
   0
ARC
   8
LAYER1
   6
CONTINUOUS
  62
7
  10
2676.5907294435
  20
76.0898324869
  30
0.0000000000
  40
0.5000000000
  50
270.0000000000
  51
0.0000000000
   0
LINE
   8
LAYER1
   6
CONTINUOUS
  62
7
  10
2671.0907294435
  20
83.5898324869
  30
0.0000000000
  11
2676.5907294435
  21
83.5898324869
  31
0.0000000000
   0
LINE
   8
LAYER1
   6
CONTINUOUS
  62
7
  10
2667.0907294435
  20
88.5898324869
  30
0.0000000000
  11
2642.0907294435
  21
88.5898324869
  31
0.0000000000
   0
LINE
   8
LAYER1
   6
CONTINUOUS
  62
7
  10
2605.5501124208
  20
515.5898324869
  30
0.0000000000
  11
2330.5501124208
  21
515.5898324869
  31
0.0000000000
   0
ARC
   8
LAYER1
   6
CONTINUOUS
  62
7
  10
2259.3248162275
  20
-3303.5405977236
  30
0.0000000000
  40
3834.7919368180
  50
84.8199802664
  51
88.9357588094
   0
LINE
   8
LAYER1
   6
CONTINUOUS
  62
7
  10
2105.5501124208
  20
515.5898324869
  30
0.0000000000
  11
2330.5501124208
  21
515.5898324869
  31
0.0000000000
   0
ARC
   8
LAYER1
   6
CONTINUOUS
  62
7
  10
2330.5501124209
  20
-1164.4101675133
  30
0.0000000000
  40
1695.0000000002
  50
90.0000000000
  51
97.6281496686
   0
ARC
   8
LAYER1
   6
CONTINUOUS
  62
7
  10
1830.5501124209
  20
-1164.4101675133
  30
0.0000000000
  40
1695.0000000002
  50
90.0000000000
  51
97.6281496686
   0
ARC
   8
LAYER1
   6
CONTINUOUS
  62
7
  10
2671.0907294435
  20
87.5898324869
  30
0.0000000000
  40
4.0000000000
  50
180.0000000000
  51
270.0000000000
   0
LINE
   8
LAYER1
   6
CONTINUOUS
  62
7
  10
2595.5501124208
  20
83.0898324869
  30
0.0000000000
  11
2595.5501124208
  21
76.0898324869
  31
0.0000000000
   0
ARC
   8
LAYER1
   6
CONTINUOUS
  62
7
  10
2596.0501124208
  20
76.0898324869
  30
0.0000000000
  40
0.5000000000
  50
180.0000000000
  51
270.0000000000
   0
LINE
   8
LAYER1
   6
CONTINUOUS
  62
7
  10
2640.5501124208
  20
83.0898324869
  30
0.0000000000
  11
2640.5501124208
  21
76.0898324869
  31
0.0000000000
   0
ARC
   8
LAYER1
   6
CONTINUOUS
  62
7
  10
2640.0501124208
  20
76.0898324869
  30
0.0000000000
  40
0.5000000000
  50
270.0000000000
  51
0.0000000000
   0
LINE
   8
LAYER1
   6
CONTINUOUS
  62
7
  10
2634.5501124208
  20
83.5898324869
  30
0.0000000000
  11
2601.5501124208
  21
83.5898324869
  31
0.0000000000
   0
LINE
   8
LAYER1
   6
CONTINUOUS
  62
7
  10
2671.0907294435
  20
83.5898324869
  30
0.0000000000
  11
2638.0907294435
  21
83.5898324869
  31
0.0000000000
   0
ARC
   8
LAYER1
   6
CONTINUOUS
  62
7
  10
2630.0501124208
  20
439.0898324869
  30
0.0000000000
  40
0.5000000000
  50
0.0000000000
  51
90.0000000000
   0
LINE
   8
LAYER1
   6
CONTINUOUS
  62
7
  10
2630.5501124208
  20
435.5898324869
  30
0.0000000000
  11
2630.5501124208
  21
439.0898324869
  31
0.0000000000
   0
LINE
   8
LAYER1
   6
CONTINUOUS
  62
7
  10
2630.0501124208
  20
439.5898324869
  30
0.0000000000
  11
2606.0501124208
  21
439.5898324869
  31
0.0000000000
   0
LINE
   8
LAYER1
   6
CONTINUOUS
  62
7
  10
2630.5501124208
  20
87.5898324869
  30
0.0000000000
  11
2630.5501124208
  21
88.5898324869
  31
0.0000000000
   0
LINE
   8
LAYER1
   6
CONTINUOUS
  62
7
  10
2605.5501124208
  20
87.5898324869
  30
0.0000000000
  11
2605.5501124208
  21
88.5898324869
  31
0.0000000000
   0
ARC
   8
LAYER1
   6
CONTINUOUS
  62
7
  10
2634.5501124208
  20
87.5898324869
  30
0.0000000000
  40
4.0000000000
  50
180.0000000000
  51
270.0000000000
   0
ARC
   8
LAYER1
   6
CONTINUOUS
  62
7
  10
2601.5501124208
  20
87.5898324869
  30
0.0000000000
  40
4.0000000000
  50
270.0000000000
  51
0.0000000000
   0
ARC
   8
LAYER1
   6
CONTINUOUS
  62
7
  10
2640.0501124208
  20
83.0898324869
  30
0.0000000000
  40
0.5000000000
  50
359.9999999999
  51
90.0000000000
   0
ARC
   8
LAYER1
   6
CONTINUOUS
  62
7
  10
2638.0907294435
  20
87.5898324869
  30
0.0000000000
  40
4.0000000000
  50
270.0000000000
  51
0.0000000000
   0
ARC
   8
LAYER1
   6
CONTINUOUS
  62
7
  10
1105.0501124208
  20
439.0898324869
  30
0.0000000000
  40
0.5000000000
  50
0.0000000000
  51
90.0000000000
   0
ARC
   8
LAYER1
   6
CONTINUOUS
  62
7
  10
1115.0501124208
  20
83.0898324869
  30
0.0000000000
  40
0.5000000000
  50
359.9999999999
  51
90.0000000000
   0
LINE
   8
LAYER1
   6
CONTINUOUS
  62
7
  10
1115.0501124208
  20
83.5898324869
  30
0.0000000000
  11
1109.5501124208
  21
83.5898324869
  31
0.0000000000
   0
ARC
   8
LAYER1
   6
CONTINUOUS
  62
7
  10
1040.0094953982
  20
87.5898324869
  30
0.0000000000
  40
4.0000000000
  50
270.0000000000
  51
0.0000000000
   0
ARC
   8
LAYER1
   6
CONTINUOUS
  62
7
  10
1073.0094953982
  20
87.5898324869
  30
0.0000000000
  40
4.0000000000
  50
180.0000000000
  51
270.0000000000
   0
LINE
   8
LAYER1
   6
CONTINUOUS
  62
7
  10
1044.0094953982
  20
88.5898324869
  30
0.0000000000
  11
1069.0094953982
  21
88.5898324869
  31
0.0000000000
   0
LINE
   8
LAYER1
   6
CONTINUOUS
  62
7
  10
1040.0094953982
  20
83.5898324869
  30
0.0000000000
  11
1034.5094953982
  21
83.5898324869
  31
0.0000000000
   0
ARC
   8
LAYER1
   6
CONTINUOUS
  62
7
  10
1034.5094953982
  20
83.0898324869
  30
0.0000000000
  40
0.5000000000
  50
90.0000000000
  51
180.0000000001
   0
LINE
   8
LAYER1
   6
CONTINUOUS
  62
7
  10
1076.5501124208
  20
83.5898324869
  30
0.0000000000
  11
1071.0501124208
  21
83.5898324869
  31
0.0000000000
   0
LINE
   8
LAYER1
   6
CONTINUOUS
  62
7
  10
2630.5501124208
  20
88.5898324869
  30
0.0000000000
  11
2605.5501124208
  21
88.5898324869
  31
0.0000000000
   0
LINE
   8
LAYER1
   6
CONTINUOUS
  62
7
  10
2596.0501124208
  20
83.5898324869
  30
0.0000000000
  11
2601.5501124208
  21
83.5898324869
  31
0.0000000000
   0
ARC
   8
LAYER1
   6
CONTINUOUS
  62
7
  10
2596.0501124208
  20
83.0898324869
  30
0.0000000000
  40
0.5000000000
  50
90.0000000000
  51
180.0000000001
   0
ARC
   8
LAYER1
   6
CONTINUOUS
  62
7
  10
2606.0501124208
  20
439.0898324869
  30
0.0000000000
  40
0.5000000000
  50
90.0000000000
  51
180.0000000000
   0
LINE
   8
LAYER1
   6
CONTINUOUS
  62
7
  10
2642.0907294435
  20
232.4251350907
  30
0.0000000000
  11
2642.0907294435
  21
240.4543836700
  31
0.0000000000
   0
LINE
   8
LAYER1
   6
CONTINUOUS
  62
7
  10
2630.5501124208
  20
232.4251350907
  30
0.0000000000
  11
2642.0907294435
  21
232.4251350907
  31
0.0000000000
   0
LINE
   8
LAYER1
   6
CONTINUOUS
  62
7
  10
2667.0907294435
  20
236.9408628024
  30
0.0000000000
  11
2667.0907294435
  21
87.5898324869
  31
0.0000000000
   0
LINE
   8
LAYER1
   6
CONTINUOUS
  62
7
  10
2642.0907294435
  20
240.4543836700
  30
0.0000000000
  11
2642.0907294435
  21
87.5898324869
  31
0.0000000000
   0
LINE
   8
LAYER1
   6
CONTINUOUS
  62
7
  10
2630.5501124208
  20
435.5898324869
  30
0.0000000000
  11
2630.5501124208
  21
88.5898324869
  31
0.0000000000
   0
LINE
   8
LAYER1
   6
CONTINUOUS
  62
7
  10
2630.5501124208
  20
435.5898324869
  30
0.0000000000
  11
2605.5501124208
  21
435.5898324869
  31
0.0000000000
   0
LINE
   8
LAYER1
   6
CONTINUOUS
  62
7
  10
2605.5501124208
  20
515.5898324869
  30
0.0000000000
  11
2605.5501124208
  21
245.5898324869
  31
0.0000000000
   0
LINE
   8
LAYER1
   6
CONTINUOUS
  62
7
  10
2677.0907294435
  20
83.0898324869
  30
0.0000000000
  11
2677.0907294435
  21
76.0898324869
  31
0.0000000000
   0
LINE
   8
LAYER1
   6
CONTINUOUS
  62
7
  10
2630.5501124208
  20
242.0763116193
  30
0.0000000000
  11
2694.7788604248
  21
233.0495497630
  31
0.0000000000
   0
ARC
   8
LAYER1
   6
CONTINUOUS
  62
7
  10
2695.4747259296
  20
238.0008901067
  30
0.0000000000
  40
5.0000000000
  50
262.0000000000
  51
345.8904880686
   0
LINE
   8
LAYER1
   6
CONTINUOUS
  62
7
  10
2634.5501124208
  20
83.5898324869
  30
0.0000000000
  11
2640.0501124208
  21
83.5898324869
  31
0.0000000000
   0
ARC
   8
LAYER1
   6
CONTINUOUS
  62
7
  10
2676.5907294435
  20
83.0898324869
  30
0.0000000000
  40
0.5000000000
  50
359.9999999999
  51
90.0000000000
   0
LINE
   8
LAYER1
   6
CONTINUOUS
  62
7
  10
1080.5501124208
  20
87.5898324869
  30
0.0000000000
  11
1080.5501124208
  21
88.5898324869
  31
0.0000000000
   0
LINE
   8
LAYER1
   6
CONTINUOUS
  62
7
  10
1081.0501124208
  20
439.5898324869
  30
0.0000000000
  11
1105.0501124208
  21
439.5898324869
  31
0.0000000000
   0
LINE
   8
LAYER1
   6
CONTINUOUS
  62
7
  10
1080.5501124208
  20
435.5898324869
  30
0.0000000000
  11
1080.5501124208
  21
439.0898324869
  31
0.0000000000
   0
ARC
   8
LAYER1
   6
CONTINUOUS
  62
7
  10
1081.0501124208
  20
439.0898324869
  30
0.0000000000
  40
0.5000000000
  50
90.0000000000
  51
180.0000000000
   0
LINE
   8
LAYER1
   6
CONTINUOUS
  62
7
  10
1040.0094953982
  20
83.5898324869
  30
0.0000000000
  11
1073.0094953982
  21
83.5898324869
  31
0.0000000000
   0
LINE
   8
LAYER1
   6
CONTINUOUS
  62
7
  10
1076.5501124208
  20
83.5898324869
  30
0.0000000000
  11
1109.5501124208
  21
83.5898324869
  31
0.0000000000
   0
ARC
   8
LAYER1
   6
CONTINUOUS
  62
7
  10
1071.0501124208
  20
76.0898324869
  30
0.0000000000
  40
0.5000000000
  50
180.0000000000
  51
270.0000000001
   0
LINE
   8
LAYER1
   6
CONTINUOUS
  62
7
  10
1070.5501124208
  20
83.0898324869
  30
0.0000000000
  11
1070.5501124208
  21
76.0898324869
  31
0.0000000000
   0
LINE
   8
LAYER1
   6
CONTINUOUS
  62
7
  10
1105.5501124208
  20
515.5898324869
  30
0.0000000000
  11
1330.5501124208
  21
515.5898324869
  31
0.0000000000
   0
LINE
   8
LAYER1
   6
CONTINUOUS
  62
7
  10
1605.5501124208
  20
515.5898324869
  30
0.0000000000
  11
1830.5501124208
  21
515.5898324869
  31
0.0000000000
   0
ARC
   8
LAYER1
   6
CONTINUOUS
  62
7
  10
1759.3248162275
  20
-3303.5405977236
  30
0.0000000000
  40
3834.7919368180
  50
84.8199802664
  51
88.9357588094
   0
LINE
   8
LAYER1
   6
CONTINUOUS
  62
7
  10
2105.5501124208
  20
515.5898324869
  30
0.0000000000
  11
1830.5501124208
  21
515.5898324869
  31
0.0000000000
   0
LINE
   8
LAYER1
   6
CONTINUOUS
  62
7
  10
2642.0907294435
  20
775.5898324869
  30
0.0000000000
  11
2642.0907294435
  21
765.4759958975
  31
0.0000000000
   0
LINE
   8
LAYER1
   6
CONTINUOUS
  62
7
  10
2731.0908227864
  20
775.5898324869
  30
0.0000000000
  11
2659.4764641998
  21
775.5898324869
  31
0.0000000000
   0
ARC
   8
LAYER1
   6
CONTINUOUS
  62
7
  10
2731.0908227864
  20
770.5898324869
  30
0.0000000000
  40
5.0000000000
  50
6.4577639174
  51
90.0000000000
   0
LINE
   8
LAYER1
   6
CONTINUOUS
  62
7
  10
2605.5501124208
  20
515.5898324869
  30
0.0000000000
  11
2639.6711028250
  21
758.3732945061
  31
0.0000000000
   0
ARC
   8
LAYER1
   6
CONTINUOUS
  62
7
  10
3869.6750105708
  20
462.2123667814
  30
0.0000000000
  40
1265.2513236380
  50
166.3731840086
  51
177.5821314293
   0
ARC
   8
LAYER1
   6
CONTINUOUS
  62
7
  10
2659.4764641998
  20
755.5898324869
  30
0.0000000000
  40
20.0000000000
  50
90.0000000000
  51
172.0000000000
   0
ARC
   8
LAYER1
   6
CONTINUOUS
  62
7
  10
1245.5765462859
  20
602.4460418998
  30
0.0000000000
  40
1500.0000000000
  50
345.8904880686
  51
6.4577639174
   0
LINE
   8
LAYER1
   6
GESTRICHELT2
  62
7
  10
2105.5501124208
  20
775.5898324869
  30
0.0000000000
  11
2105.5501124208
  21
245.5898324869
  31
0.0000000000
   0
LINE
   8
LAYER1
   6
GESTRICHELT2
  62
7
  10
1605.5501124208
  20
775.5898324869
  30
0.0000000000
  11
1605.5501124208
  21
245.5898324869
  31
0.0000000000
   0
LINE
   8
LAYER1
   6
CONTINUOUS
  62
7
  10
2596.0501124208
  20
75.5898324869
  30
0.0000000000
  11
2676.5907294435
  21
75.5898324869
  31
0.0000000000
   0
LINE
   8
LAYER1
   6
CONTINUOUS
  62
7
  10
1105.5501124208
  20
515.5898324869
  30
0.0000000000
  11
1105.5501124208
  21
245.5898324869
  31
0.0000000000
   0
ARC
   8
LAYER1
   6
CONTINUOUS
  62
7
  10
1115.0501124208
  20
76.0898324869
  30
0.0000000000
  40
0.5000000000
  50
270.0000000000
  51
0.0000000000
   0
LINE
   8
LAYER1
   6
CONTINUOUS
  62
7
  10
1069.0094953982
  20
232.4251350907
  30
0.0000000000
  11
1069.0094953982
  21
240.4543836700
  31
0.0000000000
   0
LINE
   8
LAYER1
   6
CONTINUOUS
  62
7
  10
544.3546776899
  20
234.0763116193
  30
0.0000000000
  11
608.5834256939
  21
225.0495497630
  31
0.0000000000
   0
LINE
   8
LAYER1
   6
CONTINUOUS
  62
7
  10
548.3546776899
  20
75.5898324869
  30
0.0000000000
  11
553.8546776899
  21
75.5898324869
  31
0.0000000000
   0
ARC
   8
LAYER1
   6
CONTINUOUS
  62
7
  10
590.3952947125
  20
75.0898324869
  30
0.0000000000
  40
0.5000000000
  50
359.9999999999
  51
90.0000000000
   0
LINE
   8
LAYER1
   6
CONTINUOUS
  62
7
  10
519.3546776899
  20
427.5898324869
  30
0.0000000000
  11
519.3546776899
  21
80.5898324869
  31
0.0000000000
   0
ARC
   8
LAYER1
   6
CONTINUOUS
  62
7
  10
590.3952947125
  20
68.0898324869
  30
0.0000000000
  40
0.5000000000
  50
270.0000000000
  51
0.0000000000
   0
LINE
   8
LAYER1
   6
CONTINUOUS
  62
7
  10
584.8952947125
  20
75.5898324869
  30
0.0000000000
  11
590.3952947125
  21
75.5898324869
  31
0.0000000000
   0
LINE
   8
LAYER1
   6
CONTINUOUS
  62
7
  10
580.8952947125
  20
80.5898324869
  30
0.0000000000
  11
555.8952947125
  21
80.5898324869
  31
0.0000000000
   0
ARC
   8
LAYER1
   6
CONTINUOUS
  62
7
  10
551.8952947125
  20
79.5898324869
  30
0.0000000000
  40
4.0000000000
  50
270.0000000000
  51
0.0000000000
   0
ARC
   8
LAYER1
   6
CONTINUOUS
  62
7
  10
584.8952947125
  20
79.5898324869
  30
0.0000000000
  40
4.0000000000
  50
180.0000000000
  51
270.0000000000
   0
ARC
   8
LAYER1
   6
CONTINUOUS
  62
7
  10
1034.5094953982
  20
76.0898324869
  30
0.0000000000
  40
0.5000000000
  50
180.0000000000
  51
270.0000000001
   0
LINE
   8
LAYER1
   6
CONTINUOUS
  62
7
  10
1105.5501124208
  20
435.5898324869
  30
0.0000000000
  11
1105.5501124208
  21
88.5898324869
  31
0.0000000000
   0
ARC
   8
LAYER1
   6
CONTINUOUS
  62
7
  10
1015.6254989121
  20
238.0008901067
  30
0.0000000000
  40
5.0000000000
  50
194.1095119314
  51
278.0000000000
   0
LINE
   8
LAYER1
   6
CONTINUOUS
  62
7
  10
1080.5501124208
  20
242.0763116193
  30
0.0000000000
  11
1016.3213644169
  21
233.0495497630
  31
0.0000000000
   0
LINE
   8
LAYER1
   6
CONTINUOUS
  62
7
  10
1034.0094953982
  20
83.0898324869
  30
0.0000000000
  11
1034.0094953982
  21
76.0898324869
  31
0.0000000000
   0
LINE
   8
LAYER1
   6
CONTINUOUS
  62
7
  10
1115.5501124208
  20
83.0898324869
  30
0.0000000000
  11
1115.5501124208
  21
76.0898324869
  31
0.0000000000
   0
LINE
   8
LAYER1
   6
CONTINUOUS
  62
7
  10
1080.5501124208
  20
435.5898324869
  30
0.0000000000
  11
1105.5501124208
  21
435.5898324869
  31
0.0000000000
   0
LINE
   8
LAYER1
   6
CONTINUOUS
  62
7
  10
1080.5501124208
  20
435.5898324869
  30
0.0000000000
  11
1080.5501124208
  21
88.5898324869
  31
0.0000000000
   0
LINE
   8
LAYER1
   6
CONTINUOUS
  62
7
  10
1069.0094953982
  20
240.4543836700
  30
0.0000000000
  11
1069.0094953982
  21
87.5898324869
  31
0.0000000000
   0
LINE
   8
LAYER1
   6
CONTINUOUS
  62
7
  10
1044.0094953982
  20
236.9408628024
  30
0.0000000000
  11
1044.0094953982
  21
87.5898324869
  31
0.0000000000
   0
LINE
   8
LAYER1
   6
CONTINUOUS
  62
7
  10
1080.5501124208
  20
232.4251350907
  30
0.0000000000
  11
1069.0094953982
  21
232.4251350907
  31
0.0000000000
   0
ARC
   8
LAYER1
   6
CONTINUOUS
  62
7
  10
1071.0501124208
  20
83.0898324869
  30
0.0000000000
  40
0.5000000000
  50
90.0000000000
  51
180.0000000001
   0
LINE
   8
LAYER1
   6
CONTINUOUS
  62
7
  10
1080.5501124208
  20
88.5898324869
  30
0.0000000000
  11
1105.5501124208
  21
88.5898324869
  31
0.0000000000
   0
ARC
   8
LAYER1
   6
CONTINUOUS
  62
7
  10
1109.5501124208
  20
87.5898324869
  30
0.0000000000
  40
4.0000000000
  50
180.0000000000
  51
270.0000000000
   0
ARC
   8
LAYER1
   6
CONTINUOUS
  62
7
  10
1076.5501124208
  20
87.5898324869
  30
0.0000000000
  40
4.0000000000
  50
270.0000000000
  51
0.0000000000
   0
LINE
   8
LAYER1
   6
CONTINUOUS
  62
7
  10
1105.5501124208
  20
87.5898324869
  30
0.0000000000
  11
1105.5501124208
  21
88.5898324869
  31
0.0000000000
   0
ARC
   8
LAYER1
   6
CONTINUOUS
  62
7
  10
980.0094020553
  20
770.5898324869
  30
0.0000000000
  40
5.0000000000
  50
90.0000000000
  51
173.5422360826
   0
LINE
   8
LAYER1
   6
CONTINUOUS
  62
7
  10
980.0094020553
  20
775.5898324869
  30
0.0000000000
  11
1051.6237606419
  21
775.5898324869
  31
0.0000000000
   0
LINE
   8
LAYER1
   6
CONTINUOUS
  62
7
  10
1069.0094953982
  20
775.5898324869
  30
0.0000000000
  11
1069.0094953982
  21
765.4759958975
  31
0.0000000000
   0
LINE
   8
LAYER1
   6
CONTINUOUS
  62
7
  10
1069.0094953982
  20
775.5898324869
  30
0.0000000000
  11
1330.5501124208
  21
775.5898324869
  31
0.0000000000
   0
ARC
   8
LAYER1
   6
CONTINUOUS
  62
7
  10
644.8953880554
  20
762.5898324869
  30
0.0000000000
  40
5.0000000000
  50
6.4577639174
  51
90.0000000000
   0
LINE
   8
LAYER1
   6
CONTINUOUS
  62
7
  10
644.8953880554
  20
767.5898324869
  30
0.0000000000
  11
573.2810294688
  21
767.5898324869
  31
0.0000000000
   0
ARC
   8
LAYER1
   6
CONTINUOUS
  62
7
  10
-158.5747857291
  20
462.2123667815
  30
0.0000000000
  40
1265.2513236380
  50
2.4178685707
  51
13.6268159914
   0
LINE
   8
LAYER1
   6
CONTINUOUS
  62
7
  10
1105.5501124208
  20
515.5898324869
  30
0.0000000000
  11
1071.4291220167
  21
758.3732945061
  31
0.0000000000
   0
ARC
   8
LAYER1
   6
CONTINUOUS
  62
7
  10
1783.4795758399
  20
454.2123667814
  30
0.0000000000
  40
1265.2513236381
  50
166.3731840086
  51
177.5821314293
   0
LINE
   8
LAYER1
   6
CONTINUOUS
  62
7
  10
1105.5501124208
  20
245.5898324869
  30
0.0000000000
  11
1330.5501124208
  21
245.5898324869
  31
0.0000000000
   0
LINE
   8
LAYER1
   6
CONTINUOUS
  62
7
  10
1330.5501124208
  20
232.4251350907
  30
0.0000000000
  11
1105.5501124208
  21
232.4251350907
  31
0.0000000000
   0
ARC
   8
LAYER1
   6
CONTINUOUS
  62
7
  10
1330.5501124209
  20
-1164.4101675133
  30
0.0000000000
  40
1695.0000000002
  50
90.0000000000
  51
97.6281496686
   0
LINE
   8
LAYER1
   6
CONTINUOUS
  62
7
  10
544.3546776899
  20
80.5898324869
  30
0.0000000000
  11
519.3546776899
  21
80.5898324869
  31
0.0000000000
   0
ARC
   8
LAYER1
   6
CONTINUOUS
  62
7
  10
553.8546776899
  20
75.0898324869
  30
0.0000000000
  40
0.5000000000
  50
359.9999999999
  51
90.0000000000
   0
LINE
   8
LAYER1
   6
CONTINUOUS
  62
7
  10
509.8546776899
  20
75.5898324869
  30
0.0000000000
  11
515.3546776899
  21
75.5898324869
  31
0.0000000000
   0
ARC
   8
LAYER1
   6
CONTINUOUS
  62
7
  10
509.8546776899
  20
75.0898324869
  30
0.0000000000
  40
0.5000000000
  50
90.0000000000
  51
180.0000000001
   0
ARC
   8
LAYER1
   6
CONTINUOUS
  62
7
  10
173.1293814966
  20
-3311.5405977236
  30
0.0000000000
  40
3834.7919368180
  50
84.8199802664
  51
88.9357588094
   0
ARC
   8
LAYER1
   6
CONTINUOUS
  62
7
  10
609.2792911987
  20
230.0008901067
  30
0.0000000000
  40
5.0000000000
  50
262.0000000000
  51
345.8904880686
   0
LINE
   8
LAYER1
   6
CONTINUOUS
  62
7
  10
519.3546776899
  20
507.5898324869
  30
0.0000000000
  11
553.4756680940
  21
750.3732945061
  31
0.0000000000
   0
ARC
   8
LAYER1
   6
CONTINUOUS
  62
7
  10
-840.6188884451
  20
594.4460418998
  30
0.0000000000
  40
1500.0000000000
  50
345.8904880686
  51
6.4577639174
   0
ARC
   8
LAYER1
   6
CONTINUOUS
  62
7
  10
1051.6237606419
  20
755.5898324869
  30
0.0000000000
  40
20.0000000000
  50
8.0000000000
  51
90.0000000000
   0
ARC
   8
LAYER1
   6
CONTINUOUS
  62
7
  10
2465.5236785559
  20
602.4460418998
  30
0.0000000000
  40
1500.0000000001
  50
173.5422360826
  51
194.1095119314
   0
LINE
   8
LAYER1
   6
CONTINUOUS
  62
7
  10
555.8952947125
  20
767.5898324869
  30
0.0000000000
  11
555.8952947125
  21
757.4759958975
  31
0.0000000000
   0
ARC
   8
LAYER1
   6
CONTINUOUS
  62
7
  10
573.2810294688
  20
747.5898324869
  30
0.0000000000
  40
20.0000000000
  50
90.0000000000
  51
172.0000000000
   0
LINE
   8
LAYER1
   6
CONTINUOUS
  62
7
  10
1034.5094953982
  20
75.5898324869
  30
0.0000000000
  11
1115.0501124208
  21
75.5898324869
  31
0.0000000000
   0
ARC
   8
LAYER1
   6
CONTINUOUS
  62
7
  10
519.8546776899
  20
431.0898324869
  30
0.0000000000
  40
0.5000000000
  50
90.0000000000
  51
180.0000000000
   0
LINE
   8
LAYER1
   6
CONTINUOUS
  62
7
  10
555.8952947125
  20
224.4251350907
  30
0.0000000000
  11
555.8952947125
  21
232.4543836700
  31
0.0000000000
   0
LINE
   8
LAYER1
   6
CONTINUOUS
  62
7
  10
544.3546776899
  20
224.4251350907
  30
0.0000000000
  11
555.8952947125
  21
224.4251350907
  31
0.0000000000
   0
LINE
   8
LAYER1
   6
CONTINUOUS
  62
7
  10
580.8952947125
  20
228.9408628024
  30
0.0000000000
  11
580.8952947125
  21
79.5898324869
  31
0.0000000000
   0
LINE
   8
LAYER1
   6
CONTINUOUS
  62
7
  10
555.8952947125
  20
232.4543836700
  30
0.0000000000
  11
555.8952947125
  21
79.5898324869
  31
0.0000000000
   0
LINE
   8
LAYER1
   6
CONTINUOUS
  62
7
  10
544.3546776899
  20
427.5898324869
  30
0.0000000000
  11
544.3546776899
  21
80.5898324869
  31
0.0000000000
   0
LINE
   8
LAYER1
   6
CONTINUOUS
  62
7
  10
544.3546776899
  20
427.5898324869
  30
0.0000000000
  11
519.3546776899
  21
427.5898324869
  31
0.0000000000
   0
LINE
   8
LAYER1
   6
CONTINUOUS
  62
7
  10
519.3546776899
  20
507.5898324869
  30
0.0000000000
  11
519.3546776899
  21
237.5898324869
  31
0.0000000000
   0
LINE
   8
LAYER1
   6
CONTINUOUS
  62
7
  10
590.8952947125
  20
75.0898324869
  30
0.0000000000
  11
590.8952947125
  21
68.0898324869
  31
0.0000000000
   0
LINE
   8
LAYER1
   6
CONTINUOUS
  62
7
  10
509.3546776899
  20
75.0898324869
  30
0.0000000000
  11
509.3546776899
  21
68.0898324869
  31
0.0000000000
   0
ARC
   8
LAYER1
   6
CONTINUOUS
  62
7
  10
509.8546776899
  20
68.0898324869
  30
0.0000000000
  40
0.5000000000
  50
180.0000000000
  51
270.0000000000
   0
LINE
   8
LAYER1
   6
CONTINUOUS
  62
7
  10
554.3546776899
  20
75.0898324869
  30
0.0000000000
  11
554.3546776899
  21
68.0898324869
  31
0.0000000000
   0
ARC
   8
LAYER1
   6
CONTINUOUS
  62
7
  10
553.8546776899
  20
68.0898324869
  30
0.0000000000
  40
0.5000000000
  50
270.0000000000
  51
0.0000000000
   0
LINE
   8
LAYER1
   6
CONTINUOUS
  62
7
  10
548.3546776899
  20
75.5898324869
  30
0.0000000000
  11
515.3546776899
  21
75.5898324869
  31
0.0000000000
   0
LINE
   8
LAYER1
   6
CONTINUOUS
  62
7
  10
584.8952947125
  20
75.5898324869
  30
0.0000000000
  11
551.8952947125
  21
75.5898324869
  31
0.0000000000
   0
ARC
   8
LAYER1
   6
CONTINUOUS
  62
7
  10
543.8546776899
  20
431.0898324869
  30
0.0000000000
  40
0.5000000000
  50
0.0000000000
  51
90.0000000000
   0
LINE
   8
LAYER1
   6
CONTINUOUS
  62
7
  10
-480.6453223101
  20
79.5898324869
  30
0.0000000000
  11
-480.6453223101
  21
80.5898324869
  31
0.0000000000
   0
ARC
   8
LAYER1
   6
CONTINUOUS
  62
7
  10
-509.6453223101
  20
79.5898324869
  30
0.0000000000
  40
4.0000000000
  50
270.0000000000
  51
0.0000000000
   0
ARC
   8
LAYER1
   6
CONTINUOUS
  62
7
  10
-476.6453223101
  20
79.5898324869
  30
0.0000000000
  40
4.0000000000
  50
180.0000000000
  51
270.0000000000
   0
LINE
   8
LAYER1
   6
CONTINUOUS
  62
7
  10
-505.6453223101
  20
80.5898324869
  30
0.0000000000
  11
-480.6453223101
  21
80.5898324869
  31
0.0000000000
   0
ARC
   8
LAYER1
   6
CONTINUOUS
  62
7
  10
-515.1453223101
  20
75.0898324869
  30
0.0000000000
  40
0.5000000000
  50
90.0000000000
  51
180.0000000001
   0
LINE
   8
LAYER1
   6
CONTINUOUS
  62
7
  10
-505.6453223101
  20
224.4251350907
  30
0.0000000000
  11
-517.1859393327
  21
224.4251350907
  31
0.0000000000
   0
LINE
   8
LAYER1
   6
CONTINUOUS
  62
7
  10
-542.1859393327
  20
228.9408628024
  30
0.0000000000
  11
-542.1859393327
  21
79.5898324869
  31
0.0000000000
   0
LINE
   8
LAYER1
   6
CONTINUOUS
  62
7
  10
-517.1859393327
  20
232.4543836700
  30
0.0000000000
  11
-517.1859393327
  21
79.5898324869
  31
0.0000000000
   0
LINE
   8
LAYER1
   6
CONTINUOUS
  62
7
  10
-505.6453223101
  20
427.5898324869
  30
0.0000000000
  11
-505.6453223101
  21
80.5898324869
  31
0.0000000000
   0
LINE
   8
LAYER1
   6
CONTINUOUS
  62
7
  10
2642.0907294435
  20
775.5898324869
  30
0.0000000000
  11
1330.5501124208
  21
775.5898324869
  31
0.0000000000
   0
LINE
   8
LAYER1
   6
CONTINUOUS
  62
7
  10
19.3546776899
  20
507.5898324869
  30
0.0000000000
  11
244.3546776899
  21
507.5898324869
  31
0.0000000000
   0
ARC
   8
LAYER1
   6
CONTINUOUS
  62
7
  10
244.3546776899
  20
-1172.4101675133
  30
0.0000000000
  40
1695.0000000002
  50
90.0000000000
  51
97.6281496686
   0
LINE
   8
LAYER1
   6
CONTINUOUS
  62
7
  10
1605.5501124208
  20
515.5898324869
  30
0.0000000000
  11
1330.5501124208
  21
515.5898324869
  31
0.0000000000
   0
ARC
   8
LAYER1
   6
CONTINUOUS
  62
7
  10
1259.3248162275
  20
-3303.5405977236
  30
0.0000000000
  40
3834.7919368180
  50
84.8199802664
  51
88.9357588094
   0
LINE
   8
LAYER1
   6
CONTINUOUS
  62
7
  10
1330.5501124208
  20
232.4251350907
  30
0.0000000000
  11
2605.5501124208
  21
232.4251350907
  31
0.0000000000
   0
LINE
   8
LAYER1
   6
CONTINUOUS
  62
7
  10
2605.5501124208
  20
245.5898324869
  30
0.0000000000
  11
1330.5501124208
  21
245.5898324869
  31
0.0000000000
   0
LINE
   8
LAYER1
   6
GESTRICHELT2
  62
7
  10
19.3546776899
  20
767.5898324869
  30
0.0000000000
  11
19.3546776899
  21
237.5898324869
  31
0.0000000000
   0
LINE
   8
LAYER1
   6
CONTINUOUS
  62
7
  10
509.8546776899
  20
67.5898324869
  30
0.0000000000
  11
590.3952947125
  21
67.5898324869
  31
0.0000000000
   0
LINE
   8
LAYER1
   6
CONTINUOUS
  62
7
  10
544.3546776899
  20
427.5898324869
  30
0.0000000000
  11
544.3546776899
  21
431.0898324869
  31
0.0000000000
   0
LINE
   8
LAYER1
   6
CONTINUOUS
  62
7
  10
543.8546776899
  20
431.5898324869
  30
0.0000000000
  11
519.8546776899
  21
431.5898324869
  31
0.0000000000
   0
LINE
   8
LAYER1
   6
CONTINUOUS
  62
7
  10
544.3546776899
  20
79.5898324869
  30
0.0000000000
  11
544.3546776899
  21
80.5898324869
  31
0.0000000000
   0
LINE
   8
LAYER1
   6
CONTINUOUS
  62
7
  10
519.3546776899
  20
79.5898324869
  30
0.0000000000
  11
519.3546776899
  21
80.5898324869
  31
0.0000000000
   0
ARC
   8
LAYER1
   6
CONTINUOUS
  62
7
  10
548.3546776899
  20
79.5898324869
  30
0.0000000000
  40
4.0000000000
  50
180.0000000000
  51
270.0000000000
   0
ARC
   8
LAYER1
   6
CONTINUOUS
  62
7
  10
515.3546776899
  20
79.5898324869
  30
0.0000000000
  40
4.0000000000
  50
270.0000000000
  51
0.0000000000
   0
LINE
   8
LAYER1
   6
CONTINUOUS
  62
7
  10
519.3546776899
  20
507.5898324869
  30
0.0000000000
  11
244.3546776899
  21
507.5898324869
  31
0.0000000000
   0
LINE
   8
LAYER1
   6
CONTINUOUS
  62
7
  10
-976.5225032997
  20
75.0898324869
  30
0.0000000000
  11
-976.5225032997
  21
68.0898324869
  31
0.0000000000
   0
LINE
   8
LAYER1
   6
CONTINUOUS
  62
7
  10
-1048.0631203223
  20
507.5898324869
  30
0.0000000000
  11
-1048.0631203223
  21
237.5898324869
  31
0.0000000000
   0
LINE
   8
LAYER1
   6
CONTINUOUS
  62
7
  10
-1023.0631203223
  20
427.5898324869
  30
0.0000000000
  11
-1048.0631203223
  21
427.5898324869
  31
0.0000000000
   0
LINE
   8
LAYER1
   6
CONTINUOUS
  62
7
  10
-1023.0631203223
  20
427.5898324869
  30
0.0000000000
  11
-1023.0631203223
  21
80.5898324869
  31
0.0000000000
   0
LINE
   8
LAYER1
   6
CONTINUOUS
  62
7
  10
-1011.5225032997
  20
232.4543836700
  30
0.0000000000
  11
-1011.5225032997
  21
79.5898324869
  31
0.0000000000
   0
LINE
   8
LAYER1
   6
CONTINUOUS
  62
7
  10
-986.5225032997
  20
228.9408628024
  30
0.0000000000
  11
-986.5225032997
  21
79.5898324869
  31
0.0000000000
   0
LINE
   8
LAYER1
   6
CONTINUOUS
  62
7
  10
-1023.0631203223
  20
224.4251350907
  30
0.0000000000
  11
-1011.5225032997
  21
224.4251350907
  31
0.0000000000
   0
LINE
   8
LAYER1
   6
CONTINUOUS
  62
7
  10
-1011.5225032997
  20
224.4251350907
  30
0.0000000000
  11
-1011.5225032997
  21
232.4543836700
  31
0.0000000000
   0
ARC
   8
LAYER1
   6
CONTINUOUS
  62
7
  10
-1047.5631203223
  20
431.0898324869
  30
0.0000000000
  40
0.5000000000
  50
90.0000000000
  51
180.0000000000
   0
LINE
   8
LAYER1
   6
CONTINUOUS
  62
7
  10
-505.6453223101
  20
427.5898324869
  30
0.0000000000
  11
-480.6453223101
  21
427.5898324869
  31
0.0000000000
   0
LINE
   8
LAYER1
   6
CONTINUOUS
  62
7
  10
-480.6453223101
  20
507.5898324869
  30
0.0000000000
  11
-480.6453223101
  21
237.5898324869
  31
0.0000000000
   0
LINE
   8
LAYER1
   6
CONTINUOUS
  62
7
  10
-552.1859393327
  20
75.0898324869
  30
0.0000000000
  11
-552.1859393327
  21
68.0898324869
  31
0.0000000000
   0
LINE
   8
LAYER1
   6
CONTINUOUS
  62
7
  10
-505.6453223101
  20
234.0763116193
  30
0.0000000000
  11
-569.8740703141
  21
225.0495497630
  31
0.0000000000
   0
ARC
   8
LAYER1
   6
CONTINUOUS
  62
7
  10
-570.5699358189
  20
230.0008901067
  30
0.0000000000
  40
5.0000000000
  50
194.1095119314
  51
278.0000000000
   0
LINE
   8
LAYER1
   6
CONTINUOUS
  62
7
  10
-480.6453223101
  20
427.5898324869
  30
0.0000000000
  11
-480.6453223101
  21
80.5898324869
  31
0.0000000000
   0
ARC
   8
LAYER1
   6
CONTINUOUS
  62
7
  10
-551.6859393327
  20
68.0898324869
  30
0.0000000000
  40
0.5000000000
  50
180.0000000000
  51
270.0000000001
   0
ARC
   8
LAYER1
   6
CONTINUOUS
  62
7
  10
-1052.0631203223
  20
79.5898324869
  30
0.0000000000
  40
4.0000000000
  50
270.0000000000
  51
0.0000000000
   0
ARC
   8
LAYER1
   6
CONTINUOUS
  62
7
  10
-1019.0631203223
  20
79.5898324869
  30
0.0000000000
  40
4.0000000000
  50
180.0000000000
  51
270.0000000000
   0
LINE
   8
LAYER1
   6
CONTINUOUS
  62
7
  10
-1048.0631203223
  20
79.5898324869
  30
0.0000000000
  11
-1048.0631203223
  21
80.5898324869
  31
0.0000000000
   0
LINE
   8
LAYER1
   6
CONTINUOUS
  62
7
  10
-1023.0631203223
  20
79.5898324869
  30
0.0000000000
  11
-1023.0631203223
  21
80.5898324869
  31
0.0000000000
   0
LINE
   8
LAYER1
   6
CONTINUOUS
  62
7
  10
-1023.5631203223
  20
431.5898324869
  30
0.0000000000
  11
-1047.5631203223
  21
431.5898324869
  31
0.0000000000
   0
LINE
   8
LAYER1
   6
CONTINUOUS
  62
7
  10
-1023.0631203223
  20
427.5898324869
  30
0.0000000000
  11
-1023.0631203223
  21
431.0898324869
  31
0.0000000000
   0
ARC
   8
LAYER1
   6
CONTINUOUS
  62
7
  10
-1023.5631203223
  20
431.0898324869
  30
0.0000000000
  40
0.5000000000
  50
0.0000000000
  51
90.0000000000
   0
LINE
   8
LAYER1
   6
CONTINUOUS
  62
7
  10
-982.5225032997
  20
75.5898324869
  30
0.0000000000
  11
-1015.5225032997
  21
75.5898324869
  31
0.0000000000
   0
LINE
   8
LAYER1
   6
CONTINUOUS
  62
7
  10
-1019.0631203223
  20
75.5898324869
  30
0.0000000000
  11
-1052.0631203223
  21
75.5898324869
  31
0.0000000000
   0
LINE
   8
LAYER1
   6
CONTINUOUS
  62
7
  10
-1023.0631203223
  20
80.5898324869
  30
0.0000000000
  11
-1048.0631203223
  21
80.5898324869
  31
0.0000000000
   0
ARC
   8
LAYER1
   6
CONTINUOUS
  62
7
  10
-922.5224099568
  20
762.5898324869
  30
0.0000000000
  40
5.0000000000
  50
6.4577639174
  51
90.0000000000
   0
LINE
   8
LAYER1
   6
CONTINUOUS
  62
7
  10
-922.5224099568
  20
767.5898324869
  30
0.0000000000
  11
-994.1367685434
  21
767.5898324869
  31
0.0000000000
   0
LINE
   8
LAYER1
   6
CONTINUOUS
  62
7
  10
-480.6453223101
  20
507.5898324869
  30
0.0000000000
  11
-514.7663127142
  21
750.3732945061
  31
0.0000000000
   0
ARC
   8
LAYER1
   6
CONTINUOUS
  62
7
  10
-1744.7702204600
  20
454.2123667814
  30
0.0000000000
  40
1265.2513236380
  50
2.4178685707
  51
13.6268159914
   0
ARC
   8
LAYER1
   6
CONTINUOUS
  62
7
  10
879.3282438250
  20
594.4460418998
  30
0.0000000000
  40
1500.0000000001
  50
173.5422360826
  51
194.1095119314
   0
LINE
   8
LAYER1
   6
CONTINUOUS
  62
7
  10
-1048.0631203223
  20
507.5898324869
  30
0.0000000000
  11
-1013.9421299182
  21
750.3732945061
  31
0.0000000000
   0
ARC
   8
LAYER1
   6
CONTINUOUS
  62
7
  10
-2408.0366864574
  20
594.4460418998
  30
0.0000000000
  40
1500.0000000000
  50
345.8904880686
  51
6.4577639174
   0
ARC
   8
LAYER1
   6
CONTINUOUS
  62
7
  10
216.0617778277
  20
454.2123667814
  30
0.0000000000
  40
1265.2513236380
  50
166.3731840086
  51
177.5821314293
   0
LINE
   8
LAYER1
   6
CONTINUOUS
  62
7
  10
-517.1859393327
  20
767.5898324869
  30
0.0000000000
  11
-517.1859393327
  21
757.4759958975
  31
0.0000000000
   0
ARC
   8
LAYER1
   6
CONTINUOUS
  62
7
  10
-1013.5631203223
  20
68.0898324869
  30
0.0000000000
  40
0.5000000000
  50
270.0000000000
  51
0.0000000000
   0
LINE
   8
LAYER1
   6
CONTINUOUS
  62
7
  10
-1013.0631203223
  20
75.0898324869
  30
0.0000000000
  11
-1013.0631203223
  21
68.0898324869
  31
0.0000000000
   0
ARC
   8
LAYER1
   6
CONTINUOUS
  62
7
  10
-1057.5631203223
  20
68.0898324869
  30
0.0000000000
  40
0.5000000000
  50
180.0000000000
  51
270.0000000000
   0
LINE
   8
LAYER1
   6
CONTINUOUS
  62
7
  10
-1058.0631203223
  20
75.0898324869
  30
0.0000000000
  11
-1058.0631203223
  21
68.0898324869
  31
0.0000000000
   0
ARC
   8
LAYER1
   6
CONTINUOUS
  62
7
  10
-982.5225032997
  20
79.5898324869
  30
0.0000000000
  40
4.0000000000
  50
180.0000000000
  51
270.0000000000
   0
ARC
   8
LAYER1
   6
CONTINUOUS
  62
7
  10
-1015.5225032997
  20
79.5898324869
  30
0.0000000000
  40
4.0000000000
  50
270.0000000000
  51
0.0000000000
   0
LINE
   8
LAYER1
   6
CONTINUOUS
  62
7
  10
-986.5225032997
  20
80.5898324869
  30
0.0000000000
  11
-1011.5225032997
  21
80.5898324869
  31
0.0000000000
   0
LINE
   8
LAYER1
   6
CONTINUOUS
  62
7
  10
-515.6453223101
  20
75.0898324869
  30
0.0000000000
  11
-515.6453223101
  21
68.0898324869
  31
0.0000000000
   0
ARC
   8
LAYER1
   6
CONTINUOUS
  62
7
  10
-515.1453223101
  20
68.0898324869
  30
0.0000000000
  40
0.5000000000
  50
180.0000000000
  51
270.0000000001
   0
LINE
   8
LAYER1
   6
CONTINUOUS
  62
7
  10
-509.6453223101
  20
75.5898324869
  30
0.0000000000
  11
-476.6453223101
  21
75.5898324869
  31
0.0000000000
   0
LINE
   8
LAYER1
   6
CONTINUOUS
  62
7
  10
-546.1859393327
  20
75.5898324869
  30
0.0000000000
  11
-513.1859393327
  21
75.5898324869
  31
0.0000000000
   0
ARC
   8
LAYER1
   6
CONTINUOUS
  62
7
  10
-505.1453223101
  20
431.0898324869
  30
0.0000000000
  40
0.5000000000
  50
90.0000000000
  51
180.0000000000
   0
LINE
   8
LAYER1
   6
CONTINUOUS
  62
7
  10
-505.6453223101
  20
427.5898324869
  30
0.0000000000
  11
-505.6453223101
  21
431.0898324869
  31
0.0000000000
   0
LINE
   8
LAYER1
   6
CONTINUOUS
  62
7
  10
-505.1453223101
  20
431.5898324869
  30
0.0000000000
  11
-481.1453223101
  21
431.5898324869
  31
0.0000000000
   0
LINE
   8
LAYER1
   6
CONTINUOUS
  62
7
  10
-505.6453223101
  20
79.5898324869
  30
0.0000000000
  11
-505.6453223101
  21
80.5898324869
  31
0.0000000000
   0
LINE
   8
LAYER1
   6
CONTINUOUS
  62
7
  10
-1023.0631203223
  20
234.0763116193
  30
0.0000000000
  11
-958.8343723183
  21
225.0495497630
  31
0.0000000000
   0
LINE
   8
LAYER1
   6
CONTINUOUS
  62
7
  10
-1534.6037373449
  20
224.4251350907
  30
0.0000000000
  11
-1534.6037373449
  21
232.4543836700
  31
0.0000000000
   0
LINE
   8
LAYER1
   6
CONTINUOUS
  62
7
  10
-1523.0631203223
  20
224.4251350907
  30
0.0000000000
  11
-1534.6037373449
  21
224.4251350907
  31
0.0000000000
   0
LINE
   8
LAYER1
   6
CONTINUOUS
  62
7
  10
-1534.6037373449
  20
232.4543836700
  30
0.0000000000
  11
-1534.6037373449
  21
79.5898324869
  31
0.0000000000
   0
LINE
   8
LAYER1
   6
CONTINUOUS
  62
7
  10
-1523.0631203223
  20
427.5898324869
  30
0.0000000000
  11
-1523.0631203223
  21
80.5898324869
  31
0.0000000000
   0
LINE
   8
LAYER1
   6
CONTINUOUS
  62
7
  10
-1527.0631203223
  20
75.5898324869
  30
0.0000000000
  11
-1532.5631203223
  21
75.5898324869
  31
0.0000000000
   0
ARC
   8
LAYER1
   6
CONTINUOUS
  62
7
  10
-1530.6037373449
  20
79.5898324869
  30
0.0000000000
  40
4.0000000000
  50
180.0000000000
  51
270.0000000000
   0
LINE
   8
LAYER1
   6
CONTINUOUS
  62
7
  10
-1533.0631203223
  20
75.0898324869
  30
0.0000000000
  11
-1533.0631203223
  21
68.0898324869
  31
0.0000000000
   0
LINE
   8
LAYER1
   6
CONTINUOUS
  62
7
  10
-1527.0631203223
  20
75.5898324869
  30
0.0000000000
  11
-1494.0631203223
  21
75.5898324869
  31
0.0000000000
   0
LINE
   8
LAYER1
   6
CONTINUOUS
  62
7
  10
-1522.5631203223
  20
431.5898324869
  30
0.0000000000
  11
-1498.5631203223
  21
431.5898324869
  31
0.0000000000
   0
ARC
   8
LAYER1
   6
CONTINUOUS
  62
7
  10
-1057.5631203223
  20
75.0898324869
  30
0.0000000000
  40
0.5000000000
  50
90.0000000000
  51
180.0000000001
   0
LINE
   8
LAYER1
   6
CONTINUOUS
  62
7
  10
-1057.5631203223
  20
75.5898324869
  30
0.0000000000
  11
-1052.0631203223
  21
75.5898324869
  31
0.0000000000
   0
ARC
   8
LAYER1
   6
CONTINUOUS
  62
7
  10
-1013.5631203223
  20
75.0898324869
  30
0.0000000000
  40
0.5000000000
  50
359.9999999999
  51
90.0000000000
   0
LINE
   8
LAYER1
   6
CONTINUOUS
  62
7
  10
-1048.0631203223
  20
507.5898324869
  30
0.0000000000
  11
-1273.0631203223
  21
507.5898324869
  31
0.0000000000
   0
LINE
   8
LAYER1
   6
CONTINUOUS
  62
7
  10
-1048.0631203223
  20
237.5898324869
  30
0.0000000000
  11
-1273.0631203223
  21
237.5898324869
  31
0.0000000000
   0
LINE
   8
LAYER1
   6
CONTINUOUS
  62
7
  10
-470.6453223101
  20
75.0898324869
  30
0.0000000000
  11
-470.6453223101
  21
68.0898324869
  31
0.0000000000
   0
ARC
   8
LAYER1
   6
CONTINUOUS
  62
7
  10
-471.1453223101
  20
68.0898324869
  30
0.0000000000
  40
0.5000000000
  50
270.0000000000
  51
0.0000000000
   0
LINE
   8
LAYER1
   6
CONTINUOUS
  62
7
  10
-509.6453223101
  20
75.5898324869
  30
0.0000000000
  11
-515.1453223101
  21
75.5898324869
  31
0.0000000000
   0
ARC
   8
LAYER1
   6
CONTINUOUS
  62
7
  10
-551.6859393327
  20
75.0898324869
  30
0.0000000000
  40
0.5000000000
  50
90.0000000000
  51
180.0000000001
   0
LINE
   8
LAYER1
   6
CONTINUOUS
  62
7
  10
-546.1859393327
  20
75.5898324869
  30
0.0000000000
  11
-551.6859393327
  21
75.5898324869
  31
0.0000000000
   0
LINE
   8
LAYER1
   6
CONTINUOUS
  62
7
  10
-542.1859393327
  20
80.5898324869
  30
0.0000000000
  11
-517.1859393327
  21
80.5898324869
  31
0.0000000000
   0
ARC
   8
LAYER1
   6
CONTINUOUS
  62
7
  10
-513.1859393327
  20
79.5898324869
  30
0.0000000000
  40
4.0000000000
  50
180.0000000000
  51
270.0000000000
   0
ARC
   8
LAYER1
   6
CONTINUOUS
  62
7
  10
-546.1859393327
  20
79.5898324869
  30
0.0000000000
  40
4.0000000000
  50
270.0000000000
  51
0.0000000000
   0
ARC
   8
LAYER1
   6
CONTINUOUS
  62
7
  10
-481.1453223101
  20
431.0898324869
  30
0.0000000000
  40
0.5000000000
  50
0.0000000000
  51
90.0000000000
   0
LINE
   8
LAYER1
   6
CONTINUOUS
  62
7
  10
-517.1859393327
  20
224.4251350907
  30
0.0000000000
  11
-517.1859393327
  21
232.4543836700
  31
0.0000000000
   0
LINE
   8
LAYER1
   6
CONTINUOUS
  62
7
  10
-480.6453223101
  20
507.5898324869
  30
0.0000000000
  11
-255.6453223101
  21
507.5898324869
  31
0.0000000000
   0
LINE
   8
LAYER1
   6
CONTINUOUS
  62
7
  10
-606.1860326756
  20
767.5898324869
  30
0.0000000000
  11
-534.5716740891
  21
767.5898324869
  31
0.0000000000
   0
ARC
   8
LAYER1
   6
CONTINUOUS
  62
7
  10
-606.1860326756
  20
762.5898324869
  30
0.0000000000
  40
5.0000000000
  50
90.0000000000
  51
173.5422360826
   0
LINE
   8
LAYER1
   6
CONTINUOUS
  62
7
  10
-1011.5225032997
  20
767.5898324869
  30
0.0000000000
  11
-1273.0631203223
  21
767.5898324869
  31
0.0000000000
   0
ARC
   8
LAYER1
   6
CONTINUOUS
  62
7
  10
-1563.6037373449
  20
79.5898324869
  30
0.0000000000
  40
4.0000000000
  50
270.0000000000
  51
0.0000000000
   0
LINE
   8
LAYER1
   6
CONTINUOUS
  62
7
  10
-1563.6037373449
  20
75.5898324869
  30
0.0000000000
  11
-1530.6037373449
  21
75.5898324869
  31
0.0000000000
   0
LINE
   8
LAYER1
   6
CONTINUOUS
  62
7
  10
-1523.0631203223
  20
234.0763116193
  30
0.0000000000
  11
-1587.2918683263
  21
225.0495497630
  31
0.0000000000
   0
LINE
   8
LAYER1
   6
CONTINUOUS
  62
7
  10
-1559.6037373449
  20
80.5898324869
  30
0.0000000000
  11
-1534.6037373449
  21
80.5898324869
  31
0.0000000000
   0
ARC
   8
LAYER1
   6
CONTINUOUS
  62
7
  10
-1623.6038306878
  20
762.5898324869
  30
0.0000000000
  40
5.0000000000
  50
90.0000000000
  51
173.5422360826
   0
LINE
   8
LAYER1
   6
CONTINUOUS
  62
7
  10
-1623.6038306878
  20
767.5898324869
  30
0.0000000000
  11
-1551.9894721013
  21
767.5898324869
  31
0.0000000000
   0
LINE
   8
LAYER1
   6
CONTINUOUS
  62
7
  10
-1498.0631203223
  20
507.5898324869
  30
0.0000000000
  11
-1532.1841107264
  21
750.3732945061
  31
0.0000000000
   0
ARC
   8
LAYER1
   6
CONTINUOUS
  62
7
  10
-2762.1880184723
  20
454.2123667814
  30
0.0000000000
  40
1265.2513236380
  50
2.4178685707
  51
13.6268159914
   0
ARC
   8
LAYER1
   6
CONTINUOUS
  62
7
  10
-138.0895541872
  20
594.4460418998
  30
0.0000000000
  40
1500.0000000000
  50
173.5422360826
  51
194.1095119314
   0
ARC
   8
LAYER1
   6
CONTINUOUS
  62
7
  10
-534.5716740891
  20
747.5898324869
  30
0.0000000000
  40
20.0000000000
  50
8.0000000000
  51
90.0000000000
   0
ARC
   8
LAYER1
   6
CONTINUOUS
  62
7
  10
-994.1367685434
  20
747.5898324869
  30
0.0000000000
  40
20.0000000000
  50
90.0000000000
  51
172.0000000000
   0
LINE
   8
LAYER1
   6
CONTINUOUS
  62
7
  10
-1011.5225032997
  20
767.5898324869
  30
0.0000000000
  11
-1011.5225032997
  21
757.4759958975
  31
0.0000000000
   0
LINE
   8
LAYER1
   6
CONTINUOUS
  62
7
  10
-517.1859393327
  20
767.5898324869
  30
0.0000000000
  11
-255.6453223101
  21
767.5898324869
  31
0.0000000000
   0
LINE
   8
LAYER1
   6
CONTINUOUS
  62
7
  10
-982.5225032997
  20
75.5898324869
  30
0.0000000000
  11
-977.0225032997
  21
75.5898324869
  31
0.0000000000
   0
LINE
   8
LAYER1
   6
CONTINUOUS
  62
7
  10
-1273.0631203223
  20
224.4251350907
  30
0.0000000000
  11
-1048.0631203223
  21
224.4251350907
  31
0.0000000000
   0
ARC
   8
LAYER1
   6
CONTINUOUS
  62
7
  10
-1273.0631203223
  20
-1172.4101675133
  30
0.0000000000
  40
1695.0000000002
  50
82.3718503314
  51
90.0000000000
   0
ARC
   8
LAYER1
   6
CONTINUOUS
  62
7
  10
-977.0225032997
  20
75.0898324869
  30
0.0000000000
  40
0.5000000000
  50
359.9999999999
  51
90.0000000000
   0
LINE
   8
LAYER1
   6
CONTINUOUS
  62
7
  10
-1019.0631203223
  20
75.5898324869
  30
0.0000000000
  11
-1013.5631203223
  21
75.5898324869
  31
0.0000000000
   0
ARC
   8
LAYER1
   6
CONTINUOUS
  62
7
  10
-977.0225032997
  20
68.0898324869
  30
0.0000000000
  40
0.5000000000
  50
269.9999999999
  51
0.0000000000
   0
LINE
   8
LAYER1
   6
CONTINUOUS
  62
7
  10
-1048.0631203223
  20
427.5898324869
  30
0.0000000000
  11
-1048.0631203223
  21
80.5898324869
  31
0.0000000000
   0
ARC
   8
LAYER1
   6
CONTINUOUS
  62
7
  10
-958.1385068135
  20
230.0008901067
  30
0.0000000000
  40
5.0000000000
  50
262.0000000000
  51
345.8904880686
   0
LINE
   8
LAYER1
   6
CONTINUOUS
  62
7
  10
-1488.0631203223
  20
75.0898324869
  30
0.0000000000
  11
-1488.0631203223
  21
68.0898324869
  31
0.0000000000
   0
ARC
   8
LAYER1
   6
CONTINUOUS
  62
7
  10
-1532.5631203223
  20
68.0898324869
  30
0.0000000000
  40
0.5000000000
  50
180.0000000000
  51
270.0000000001
   0
ARC
   8
LAYER1
   6
CONTINUOUS
  62
7
  10
-1522.5631203223
  20
431.0898324869
  30
0.0000000000
  40
0.5000000000
  50
90.0000000000
  51
180.0000000000
   0
LINE
   8
LAYER1
   6
CONTINUOUS
  62
7
  10
-1523.0631203223
  20
427.5898324869
  30
0.0000000000
  11
-1523.0631203223
  21
431.0898324869
  31
0.0000000000
   0
LINE
   8
LAYER1
   6
CONTINUOUS
  62
7
  10
-1523.0631203223
  20
79.5898324869
  30
0.0000000000
  11
-1523.0631203223
  21
80.5898324869
  31
0.0000000000
   0
ARC
   8
LAYER1
   6
CONTINUOUS
  62
7
  10
-1527.0631203223
  20
79.5898324869
  30
0.0000000000
  40
4.0000000000
  50
270.0000000000
  51
0.0000000000
   0
ARC
   8
LAYER1
   6
CONTINUOUS
  62
7
  10
-1532.5631203223
  20
75.0898324869
  30
0.0000000000
  40
0.5000000000
  50
90.0000000000
  51
180.0000000001
   0
ARC
   8
LAYER1
   6
CONTINUOUS
  62
7
  10
-2589.5456838975
  20
762.5898324869
  30
0.0000000000
  40
5.0000000000
  50
90.0000000000
  51
173.5422360826
   0
ARC
   8
LAYER1
   6
CONTINUOUS
  62
7
  10
-2517.3275831781
  20
747.5898324869
  30
0.0000000000
  40
20.0000000000
  50
32.9548353267
  51
90.0000000000
   0
LINE
   8
LAYER1
   6
CONTINUOUS
  62
7
  10
-2589.5456838975
  20
767.5898324869
  30
0.0000000000
  11
-2517.3275831781
  21
767.5898324869
  31
0.0000000000
   0
ARC
   8
LAYER1
   6
CONTINUOUS
  62
7
  10
-2495.5455905546
  20
762.5898324869
  30
0.0000000000
  40
5.0000000000
  50
90.0000000000
  51
180.0000000000
   0
LINE
   8
LAYER1
   6
CONTINUOUS
  62
7
  10
-1975.5455905546
  20
767.5898324869
  30
0.0000000000
  11
-2495.5455905546
  21
767.5898324869
  31
0.0000000000
   0
ARC
   8
LAYER1
   6
CONTINUOUS
  62
7
  10
-1954.1779790648
  20
247.5898324869
  30
0.0000000000
  40
10.0000000000
  50
329.6822094172
  51
352.0000000000
   0
LINE
   8
LAYER1
   6
CONTINUOUS
  62
7
  10
-1498.0631203223
  20
79.5898324869
  30
0.0000000000
  11
-1498.0631203223
  21
80.5898324869
  31
0.0000000000
   0
ARC
   8
LAYER1
   6
CONTINUOUS
  62
7
  10
-1494.0631203223
  20
79.5898324869
  30
0.0000000000
  40
4.0000000000
  50
180.0000000000
  51
270.0000000000
   0
LINE
   8
LAYER1
   6
CONTINUOUS
  62
7
  10
-1523.0631203223
  20
80.5898324869
  30
0.0000000000
  11
-1498.0631203223
  21
80.5898324869
  31
0.0000000000
   0
LINE
   8
LAYER1
   6
CONTINUOUS
  62
7
  10
-1488.5631203223
  20
75.5898324869
  30
0.0000000000
  11
-1494.0631203223
  21
75.5898324869
  31
0.0000000000
   0
ARC
   8
LAYER1
   6
CONTINUOUS
  62
7
  10
-1498.5631203223
  20
431.0898324869
  30
0.0000000000
  40
0.5000000000
  50
0.0000000000
  51
90.0000000000
   0
LINE
   8
LAYER1
   6
CONTINUOUS
  62
7
  10
-1523.0631203223
  20
427.5898324869
  30
0.0000000000
  11
-1498.0631203223
  21
427.5898324869
  31
0.0000000000
   0
LINE
   8
LAYER1
   6
CONTINUOUS
  62
7
  10
-1498.0631203223
  20
507.5898324869
  30
0.0000000000
  11
-1498.0631203223
  21
237.5898324869
  31
0.0000000000
   0
LINE
   8
LAYER1
   6
CONTINUOUS
  62
7
  10
-471.1453223101
  20
75.5898324869
  30
0.0000000000
  11
-476.6453223101
  21
75.5898324869
  31
0.0000000000
   0
ARC
   8
LAYER1
   6
CONTINUOUS
  62
7
  10
-471.1453223101
  20
75.0898324869
  30
0.0000000000
  40
0.5000000000
  50
359.9999999999
  51
90.0000000000
   0
ARC
   8
LAYER1
   6
CONTINUOUS
  62
7
  10
-255.6453223101
  20
-1172.4101675133
  30
0.0000000000
  40
1695.0000000002
  50
90.0000000000
  51
97.6281496686
   0
LINE
   8
LAYER1
   6
CONTINUOUS
  62
7
  10
-255.6453223101
  20
224.4251350907
  30
0.0000000000
  11
-480.6453223101
  21
224.4251350907
  31
0.0000000000
   0
LINE
   8
LAYER1
   6
CONTINUOUS
  62
7
  10
-480.6453223101
  20
237.5898324869
  30
0.0000000000
  11
-255.6453223101
  21
237.5898324869
  31
0.0000000000
   0
ARC
   8
LAYER1
   6
CONTINUOUS
  62
7
  10
-2495.5455905546
  20
229.4251350907
  30
0.0000000000
  40
5.0000000000
  50
180.0000000000
  51
270.0000000000
   0
ARC
   8
LAYER1
   6
CONTINUOUS
  62
7
  10
-1975.5455905546
  20
229.4251350907
  30
0.0000000000
  40
5.0000000000
  50
270.0000000000
  51
0.0000000000
   0
LINE
   8
LAYER1
   6
CONTINUOUS
  62
7
  10
-1970.5455905546
  20
229.4251350907
  30
0.0000000000
  11
-1970.5455905546
  21
762.5898324869
  31
0.0000000000
   0
LINE
   8
LAYER1
   6
CONTINUOUS
  62
7
  10
-1912.9461118364
  20
469.1168468174
  30
0.0000000000
  11
-1944.2752983773
  21
246.1981014773
  31
0.0000000000
   0
ARC
   8
LAYER1
   6
CONTINUOUS
  62
7
  10
-2988.2955343420
  20
506.9869858723
  30
0.0000000000
  40
1076.1547736220
  50
345.9185147332
  51
358.1247636769
   0
LINE
   8
LAYER1
   6
CONTINUOUS
  62
7
  10
-1945.5455905546
  20
427.5898324869
  30
0.0000000000
  11
-1970.5455905546
  21
427.5898324869
  31
0.0000000000
   0
LINE
   8
LAYER1
   6
CONTINUOUS
  62
7
  10
-1945.5455905546
  20
427.5898324869
  30
0.0000000000
  11
-1970.5455905546
  21
427.5898324869
  31
0.0000000000
   0
LINE
   8
LAYER1
   6
CONTINUOUS
  62
7
  10
-1498.0631203223
  20
427.5898324869
  30
0.0000000000
  11
-1498.0631203223
  21
80.5898324869
  31
0.0000000000
   0
ARC
   8
LAYER1
   6
CONTINUOUS
  62
7
  10
-1488.5631203223
  20
68.0898324869
  30
0.0000000000
  40
0.5000000000
  50
270.0000000000
  51
0.0000000000
   0
ARC
   8
LAYER1
   6
CONTINUOUS
  62
7
  10
-1488.5631203223
  20
75.0898324869
  30
0.0000000000
  40
0.5000000000
  50
359.9999999999
  51
90.0000000000
   0
LINE
   8
LAYER1
   6
CONTINUOUS
  62
7
  10
-1559.6037373449
  20
228.9408628024
  30
0.0000000000
  11
-1559.6037373449
  21
79.5898324869
  31
0.0000000000
   0
LINE
   8
LAYER1
   6
CONTINUOUS
  62
7
  10
-1569.6037373449
  20
75.0898324869
  30
0.0000000000
  11
-1569.6037373449
  21
68.0898324869
  31
0.0000000000
   0
ARC
   8
LAYER1
   6
CONTINUOUS
  62
7
  10
-1587.9877338311
  20
230.0008901067
  30
0.0000000000
  40
5.0000000000
  50
194.1095119314
  51
278.0000000000
   0
ARC
   8
LAYER1
   6
CONTINUOUS
  62
7
  10
-1569.1037373449
  20
68.0898324869
  30
0.0000000000
  40
0.5000000000
  50
180.0000000000
  51
270.0000000001
   0
ARC
   8
LAYER1
   6
CONTINUOUS
  62
7
  10
-1569.1037373449
  20
75.0898324869
  30
0.0000000000
  40
0.5000000000
  50
90.0000000000
  51
180.0000000001
   0
LINE
   8
LAYER1
   6
CONTINUOUS
  62
7
  10
-1563.6037373449
  20
75.5898324869
  30
0.0000000000
  11
-1569.1037373449
  21
75.5898324869
  31
0.0000000000
   0
LINE
   8
LAYER1
   6
CONTINUOUS
  62
7
  10
-2525.5455905546
  20
228.9408628024
  30
0.0000000000
  11
-2553.2337215359
  21
225.0495497630
  31
0.0000000000
   0
LINE
   8
LAYER1
   6
CONTINUOUS
  62
7
  10
-2500.5455905546
  20
762.5898324869
  30
0.0000000000
  11
-2500.5455905546
  21
229.4251350907
  31
0.0000000000
   0
LINE
   8
LAYER1
   6
CONTINUOUS
  62
7
  10
-2525.5455905546
  20
427.5898324869
  30
0.0000000000
  11
-2500.5455905546
  21
427.5898324869
  31
0.0000000000
   0
LINE
   8
LAYER1
   6
CONTINUOUS
  62
7
  10
-2500.5455905546
  20
427.5898324869
  30
0.0000000000
  11
-2525.5455905546
  21
427.5898324869
  31
0.0000000000
   0
LINE
   8
LAYER1
   6
CONTINUOUS
  62
7
  10
-1534.6037373449
  20
767.5898324869
  30
0.0000000000
  11
-1534.6037373449
  21
757.4759958975
  31
0.0000000000
   0
ARC
   8
LAYER1
   6
CONTINUOUS
  62
7
  10
-1551.9894721013
  20
747.5898324869
  30
0.0000000000
  40
20.0000000000
  50
8.0000000000
  51
90.0000000000
   0
LINE
   8
LAYER1
   6
CONTINUOUS
  62
7
  10
-1569.1037373449
  20
67.5898324869
  30
0.0000000000
  11
-1488.5631203223
  21
67.5898324869
  31
0.0000000000
   0
LINE
   8
LAYER1
   6
CONTINUOUS
  62
7
  10
-551.6859393327
  20
67.5898324869
  30
0.0000000000
  11
-471.1453223101
  21
67.5898324869
  31
0.0000000000
   0
LINE
   8
LAYER1
   6
CONTINUOUS
  62
7
  10
-1057.5631203223
  20
67.5898324869
  30
0.0000000000
  11
-977.0225032997
  21
67.5898324869
  31
0.0000000000
   0
LINE
   8
LAYER1
   6
CONTINUOUS
  62
7
  10
-2529.5455905546
  20
75.5898324869
  30
0.0000000000
  11
-2535.0455905546
  21
75.5898324869
  31
0.0000000000
   0
ARC
   8
LAYER1
   6
CONTINUOUS
  62
7
  10
-2535.0455905546
  20
75.0898324869
  30
0.0000000000
  40
0.5000000000
  50
90.0000000000
  51
180.0000000000
   0
ARC
   8
LAYER1
   6
CONTINUOUS
  62
7
  10
-2491.0455905546
  20
75.0898324869
  30
0.0000000000
  40
0.5000000000
  50
0.0000000000
  51
90.0000000000
   0
LINE
   8
LAYER1
   6
CONTINUOUS
  62
7
  10
-1945.5455905546
  20
80.5898324869
  30
0.0000000000
  11
-1970.5455905546
  21
80.5898324869
  31
0.0000000000
   0
LINE
   8
LAYER1
   6
CONTINUOUS
  62
7
  10
-1941.5455905546
  20
75.5898324869
  30
0.0000000000
  11
-1974.5455905546
  21
75.5898324869
  31
0.0000000000
   0
ARC
   8
LAYER1
   6
CONTINUOUS
  62
7
  10
-1974.5455905546
  20
79.5898324869
  30
0.0000000000
  40
4.0000000000
  50
270.0000000000
  51
0.0000000000
   0
LINE
   8
LAYER1
   6
CONTINUOUS
  62
7
  10
-1970.5455905546
  20
427.5898324869
  30
0.0000000000
  11
-1970.5455905546
  21
79.5898324869
  31
0.0000000000
   0
ARC
   8
LAYER1
   6
CONTINUOUS
  62
7
  10
-1946.0455905546
  20
431.0898324869
  30
0.0000000000
  40
0.5000000000
  50
0.0000000000
  51
90.0000000000
   0
ARC
   8
LAYER1
   6
CONTINUOUS
  62
7
  10
-1970.0455905546
  20
431.0898324869
  30
0.0000000000
  40
0.5000000000
  50
90.0000000000
  51
180.0000000000
   0
ARC
   8
LAYER1
   6
CONTINUOUS
  62
7
  10
-2094.3746298416
  20
-2195.9528628125
  30
0.0000000000
  40
2698.1377478202
  50
86.6414295922
  51
87.3695285424
   0
LINE
   8
LAYER1
   6
CONTINUOUS
  62
7
  10
-1970.5455905546
  20
496.3937548693
  30
0.0000000000
  11
-1938.6082540813
  21
497.5734629112
  31
0.0000000000
   0
ARC
   8
LAYER1
   6
CONTINUOUS
  62
7
  10
-1975.5455905546
  20
762.5898324869
  30
0.0000000000
  40
5.0000000000
  50
0.0000000000
  51
90.0000000000
   0
ARC
   8
LAYER1
   6
CONTINUOUS
  62
7
  10
-1937.7037040162
  20
472.5898324869
  30
0.0000000000
  40
25.0000000000
  50
351.9853229615
  51
92.0735286337
   0
LINE
   8
LAYER1
   6
CONTINUOUS
  62
7
  10
-1945.5455905546
  20
427.5898324869
  30
0.0000000000
  11
-1945.5455905546
  21
431.0898324869
  31
0.0000000000
   0
ARC
   8
LAYER1
   6
CONTINUOUS
  62
7
  10
-1104.0314073966
  20
594.4460418999
  30
0.0000000000
  40
1500.0000000004
  50
173.5422360826
  51
194.1095119314
   0
POLYLINE
   8
LAYER1
   6
CONTINUOUS
  62
7
  66
1
  40
0.010
  41
0.010
  70
0
   0
VERTEX
   8
LAYER1
   6
CONTINUOUS
  62
7
  70
0
  10
-2558.7787448322
  20
228.7820100003
  30
0.0000000000
  40
0.010
  41
0.010
   0
VERTEX
   8
LAYER1
   6
CONTINUOUS
  62
7
  70
0
  10
-2558.4477779125
  20
227.8594066848
  30
0.0000000000
  40
0.010
  41
0.010
   0
VERTEX
   8
LAYER1
   6
CONTINUOUS
  62
7
  70
0
  10
-2557.9431794514
  20
227.0190993761
  30
0.0000000000
  40
0.010
  41
0.010
   0
VERTEX
   8
LAYER1
   6
CONTINUOUS
  62
7
  70
0
  10
-2557.2843408849
  20
226.2933806131
  30
0.0000000000
  40
0.010
  41
0.010
   0
VERTEX
   8
LAYER1
   6
CONTINUOUS
  62
7
  70
0
  10
-2556.4965810095
  20
225.7101393607
  30
0.0000000000
  40
0.010
  41
0.010
   0
VERTEX
   8
LAYER1
   6
CONTINUOUS
  62
7
  70
0
  10
-2555.6101729954
  20
225.2917892531
  30
0.0000000000
  40
0.010
  41
0.010
   0
VERTEX
   8
LAYER1
   6
CONTINUOUS
  62
7
  70
0
  10
-2554.6591810056
  20
225.0544072505
  30
0.0000000000
  40
0.010
  41
0.010
   0
VERTEX
   8
LAYER1
   6
CONTINUOUS
  62
7
  70
0
  10
-2553.6801511289
  20
225.0071158100
  30
0.0000000000
  40
0.010
  41
0.010
   0
VERTEX
   8
LAYER1
   6
CONTINUOUS
  62
7
  70
0
  10
-2553.2337215359
  20
225.0495497630
  30
0.0000000000
  40
0.010
  41
0.010
   0
SEQEND
   0
LINE
   8
LAYER1
   6
CONTINUOUS
  62
7
  10
-1946.0455905546
  20
431.5898324869
  30
0.0000000000
  11
-1970.0455905546
  21
431.5898324869
  31
0.0000000000
   0
ARC
   8
LAYER1
   6
CONTINUOUS
  62
7
  10
-1273.0631203223
  20
-1172.4101675133
  30
0.0000000000
  40
1695.0000000002
  50
90.0000000000
  51
97.6281496686
   0
LINE
   8
LAYER1
   6
CONTINUOUS
  62
7
  10
-1273.0631203223
  20
224.4251350907
  30
0.0000000000
  11
-1498.0631203223
  21
224.4251350907
  31
0.0000000000
   0
LINE
   8
LAYER1
   6
CONTINUOUS
  62
7
  10
-1498.0631203223
  20
237.5898324869
  30
0.0000000000
  11
-1273.0631203223
  21
237.5898324869
  31
0.0000000000
   0
LINE
   8
LAYER1
   6
CONTINUOUS
  62
7
  10
-1498.0631203223
  20
507.5898324869
  30
0.0000000000
  11
-1273.0631203223
  21
507.5898324869
  31
0.0000000000
   0
LINE
   8
LAYER1
   6
CONTINUOUS
  62
7
  10
-1534.6037373449
  20
767.5898324869
  30
0.0000000000
  11
-1273.0631203223
  21
767.5898324869
  31
0.0000000000
   0
LINE
   8
LAYER1
   6
CONTINUOUS
  62
7
  10
-2495.5455905546
  20
224.4251350907
  30
0.0000000000
  11
-1975.5455905546
  21
224.4251350907
  31
0.0000000000
   0
ARC
   8
LAYER1
   6
CONTINUOUS
  62
7
  10
-2525.0455905546
  20
431.0898324869
  30
0.0000000000
  40
0.5000000000
  50
90.0000000000
  51
180.0000000000
   0
LINE
   8
LAYER1
   6
CONTINUOUS
  62
7
  10
-2525.5455905546
  20
431.0898324869
  30
0.0000000000
  11
-2525.5455905546
  21
427.5898324869
  31
0.0000000000
   0
LINE
   8
LAYER1
   6
CONTINUOUS
  62
7
  10
-2529.5455905546
  20
75.5898324869
  30
0.0000000000
  11
-2496.5455905546
  21
75.5898324869
  31
0.0000000000
   0
ARC
   8
LAYER1
   6
CONTINUOUS
  62
7
  10
-2496.5455905546
  20
79.5898324869
  30
0.0000000000
  40
4.0000000000
  50
180.0000000000
  51
270.0000000000
   0
LINE
   8
LAYER1
   6
CONTINUOUS
  62
7
  10
-2500.5455905546
  20
79.5898324869
  30
0.0000000000
  11
-2500.5455905546
  21
80.5898324869
  31
0.0000000000
   0
LINE
   8
LAYER1
   6
CONTINUOUS
  62
7
  10
-2491.0455905546
  20
75.5898324869
  30
0.0000000000
  11
-2496.5455905546
  21
75.5898324869
  31
0.0000000000
   0
LINE
   8
LAYER1
   6
CONTINUOUS
  62
7
  10
-1980.0455905546
  20
75.5898324869
  30
0.0000000000
  11
-1974.5455905546
  21
75.5898324869
  31
0.0000000000
   0
LINE
   8
LAYER1
   6
CONTINUOUS
  62
7
  10
-1941.5455905546
  20
75.5898324869
  30
0.0000000000
  11
-1936.0455905546
  21
75.5898324869
  31
0.0000000000
   0
ARC
   8
LAYER1
   6
CONTINUOUS
  62
7
  10
-1936.0455905546
  20
75.0898324869
  30
0.0000000000
  40
0.5000000000
  50
0.0000000000
  51
90.0000000000
   0
ARC
   8
LAYER1
   6
CONTINUOUS
  62
7
  10
-1980.0455905546
  20
75.0898324869
  30
0.0000000000
  40
0.5000000000
  50
90.0000000000
  51
180.0000000000
   0
LINE
   8
LAYER1
   6
CONTINUOUS
  62
7
  10
-1980.5455905546
  20
75.0898324869
  30
0.0000000000
  11
-1980.5455905546
  21
68.0898324869
  31
0.0000000000
   0
ARC
   8
LAYER1
   6
CONTINUOUS
  62
7
  10
-1980.0455905546
  20
68.0898324869
  30
0.0000000000
  40
0.5000000000
  50
180.0000000000
  51
270.0000000000
   0
LINE
   8
LAYER1
   6
CONTINUOUS
  62
7
  10
-1935.5455905546
  20
75.0898324869
  30
0.0000000000
  11
-1935.5455905546
  21
68.0898324869
  31
0.0000000000
   0
ARC
   8
LAYER1
   6
CONTINUOUS
  62
7
  10
-1936.0455905546
  20
68.0898324869
  30
0.0000000000
  40
0.5000000000
  50
270.0000000000
  51
0.0000000000
   0
ARC
   8
LAYER1
   6
CONTINUOUS
  62
7
  10
-1941.5455905546
  20
79.5898324869
  30
0.0000000000
  40
4.0000000000
  50
180.0000000000
  51
270.0000000000
   0
LINE
   8
LAYER1
   6
CONTINUOUS
  62
7
  10
-2490.5455905546
  20
75.0898324869
  30
0.0000000000
  11
-2490.5455905546
  21
68.0898324869
  31
0.0000000000
   0
LINE
   8
LAYER1
   6
CONTINUOUS
  62
7
  10
-2501.0455905546
  20
431.5898324869
  30
0.0000000000
  11
-2525.0455905546
  21
431.5898324869
  31
0.0000000000
   0
ARC
   8
LAYER1
   6
CONTINUOUS
  62
7
  10
-2501.0455905546
  20
431.0898324869
  30
0.0000000000
  40
0.5000000000
  50
0.0000000000
  51
90.0000000000
   0
LINE
   8
LAYER1
   6
CONTINUOUS
  62
7
  10
-2525.5455905546
  20
427.5898324869
  30
0.0000000000
  11
-2525.5455905546
  21
80.5898324869
  31
0.0000000000
   0
LINE
   8
LAYER1
   6
CONTINUOUS
  62
7
  10
-2500.5455905546
  20
427.5898324869
  30
0.0000000000
  11
-2500.5455905546
  21
80.5898324869
  31
0.0000000000
   0
LINE
   8
LAYER1
   6
CONTINUOUS
  62
7
  10
-2535.5455905546
  20
75.0898324869
  30
0.0000000000
  11
-2535.5455905546
  21
68.0898324869
  31
0.0000000000
   0
ARC
   8
LAYER1
   6
CONTINUOUS
  62
7
  10
-2535.0455905546
  20
68.0898324869
  30
0.0000000000
  40
0.5000000000
  50
180.0000000000
  51
270.0000000000
   0
LINE
   8
LAYER1
   6
CONTINUOUS
  62
7
  10
-2525.5455905546
  20
79.5898324869
  30
0.0000000000
  11
-2525.5455905546
  21
80.5898324869
  31
0.0000000000
   0
LINE
   8
LAYER1
   6
CONTINUOUS
  62
7
  10
-2493.0049735319
  20
75.5898324869
  30
0.0000000000
  11
-2498.5049735319
  21
75.5898324869
  31
0.0000000000
   0
ARC
   8
LAYER1
   6
CONTINUOUS
  62
7
  10
-2491.0455905546
  20
68.0898324869
  30
0.0000000000
  40
0.5000000000
  50
270.0000000000
  51
0.0000000000
   0
LINE
   8
LAYER1
   6
CONTINUOUS
  62
7
  10
-2535.0455905546
  20
67.5898324869
  30
0.0000000000
  11
-2491.0455905546
  21
67.5898324869
  31
0.0000000000
   0
LINE
   8
LAYER1
   6
CONTINUOUS
  62
7
  10
-1980.0455905546
  20
67.5898324869
  30
0.0000000000
  11
-1936.0455905546
  21
67.5898324869
  31
0.0000000000
   0
LINE
   8
LAYER1
   6
CONTINUOUS
  62
7
  10
-2595.6876517418
  20
-195.0373649326
  30
0.0000000000
  11
-2500.5455905546
  21
-195.0373649326
  31
0.0000000000
   0
LINE
   8
LAYER1
   6
CONTINUOUS
  62
7
  10
-2500.5455905546
  20
-195.0373649326
  30
0.0000000000
  11
-2500.5455905546
  21
-456.5779819552
  31
0.0000000000
   0
LINE
   8
LAYER1
   6
CONTINUOUS
  62
7
  10
-2500.5455905546
  20
-101.5779819552
  30
0.0000000000
  11
-1970.5455905546
  21
-101.5779819552
  31
0.0000000000
   0
LINE
   8
LAYER1
   6
CONTINUOUS
  62
7
  10
-2500.5455905546
  20
-195.0373649326
  30
0.0000000000
  11
-1970.5455905546
  21
-195.0373649326
  31
0.0000000000
   0
CIRCLE
   8
LAYER1
   6
CONTINUOUS
  62
7
  10
-2513.0455905546
  20
-730.6185989779
  30
0.0000000000
  40
12.5000000000
   0
ARC
   8
LAYER1
   6
CONTINUOUS
  62
7
  10
-2495.5455905546
  20
-816.6044158202
  30
0.0000000000
  40
5.0000000000
  50
180.0000000000
  51
270.0000000000
   0
LINE
   8
LAYER1
   6
CONTINUOUS
  62
7
  10
-2500.5455905546
  20
-816.6044158202
  30
0.0000000000
  11
-2500.5455905546
  21
-718.1185989779
  31
0.0000000000
   0
LINE
   8
LAYER1
   6
CONTINUOUS
  62
7
  10
-2500.5455905546
  20
-718.1185989779
  30
0.0000000000
  11
-2449.8870648029
  21
-681.5779819552
  31
0.0000000000
   0
LINE
   8
LAYER1
   6
CONTINUOUS
  62
7
  10
-2495.5455905546
  20
-91.5515480903
  30
0.0000000000
  11
-1975.5455905546
  21
-91.5515480903
  31
0.0000000000
   0
CIRCLE
   8
LAYER1
   6
CONTINUOUS
  62
7
  10
-2513.0455905546
  20
-182.5373649326
  30
0.0000000000
  40
12.5000000000
   0
LINE
   8
LAYER1
   6
CONTINUOUS
  62
7
  10
-1912.9470022977
  20
-236.5779819552
  30
0.0000000000
  11
-1912.9470022977
  21
-456.5779819552
  31
0.0000000000
   0
CIRCLE
   8
LAYER1
   6
CONTINUOUS
  62
7
  10
-1958.0455905546
  20
-219.0779819553
  30
0.0000000000
  40
12.5000000000
   0
ARC
   8
LAYER1
   6
CONTINUOUS
  62
7
  10
-1917.9470022977
  20
-236.5779819552
  30
0.0000000000
  40
5.0000000000
  50
0.0000000000
  51
90.0000000000
   0
LINE
   8
LAYER1
   6
CONTINUOUS
  62
7
  10
-1970.5455905546
  20
-96.5515480903
  30
0.0000000000
  11
-1970.5455905546
  21
-231.5779819552
  31
0.0000000000
   0
ARC
   8
LAYER1
   6
CONTINUOUS
  62
7
  10
-1975.5455905546
  20
-96.5515480903
  30
0.0000000000
  40
5.0000000000
  50
0.0000000000
  51
90.0000000000
   0
ARC
   8
LAYER1
   6
CONTINUOUS
  62
7
  10
-1958.0455905546
  20
-219.0779819553
  30
0.0000000000
  40
22.5000000000
  50
326.2510114041
  51
123.7489885959
   0
LINE
   8
LAYER1
   6
CONTINUOUS
  62
7
  10
-2495.5455905546
  20
-821.6044158202
  30
0.0000000000
  11
-1975.5455905546
  21
-821.6044158202
  31
0.0000000000
   0
LINE
   8
LAYER1
   6
CONTINUOUS
  62
7
  10
-2500.5455905546
  20
-718.1185989779
  30
0.0000000000
  11
-1970.5455905546
  21
-718.1185989779
  31
0.0000000000
   0
LINE
   8
LAYER1
   6
CONTINUOUS
  62
7
  10
-2500.5455905546
  20
-811.5779819552
  30
0.0000000000
  11
-1970.5455905546
  21
-811.5779819552
  31
0.0000000000
   0
LINE
   8
LAYER1
   6
CONTINUOUS
  62
7
  10
-2500.5455905546
  20
-718.1185989779
  30
0.0000000000
  11
-2500.5455905546
  21
-456.5779819552
  31
0.0000000000
   0
LINE
   8
LAYER1
   6
CONTINUOUS
  62
7
  10
-2595.6876517418
  20
-718.1185989779
  30
0.0000000000
  11
-2500.5455905546
  21
-718.1185989779
  31
0.0000000000
   0
ARC
   8
LAYER1
   6
CONTINUOUS
  62
7
  10
-2513.0455905546
  20
-730.6185989779
  30
0.0000000000
  40
22.5000000000
  50
146.2510114041
  51
303.7489885959
   0
LINE
   8
LAYER1
   6
CONTINUOUS
  62
7
  10
-1945.5455905546
  20
427.5898324869
  30
0.0000000000
  11
-1945.5455905546
  21
79.5898324869
  31
0.0000000000
   0
ARC
   8
LAYER1
   6
CONTINUOUS
  62
7
  10
-2529.5455905546
  20
79.5898324869
  30
0.0000000000
  40
4.0000000000
  50
270.0000000000
  51
0.0000000000
   0
LINE
   8
LAYER1
   6
CONTINUOUS
  62
7
  10
-2525.5455905546
  20
80.5898324869
  30
0.0000000000
  11
-2500.5455905546
  21
80.5898324869
  31
0.0000000000
   0
LINE
   8
LAYER1
   6
CONTINUOUS
  62
7
  10
555.8952947125
  20
767.5898324869
  30
0.0000000000
  11
-255.6453223101
  21
767.5898324869
  31
0.0000000000
   0
LINE
   8
LAYER1
   6
CONTINUOUS
  62
7
  10
519.3546776899
  20
237.5898324869
  30
0.0000000000
  11
-255.6453223101
  21
237.5898324869
  31
0.0000000000
   0
LINE
   8
LAYER1
   6
CONTINUOUS
  62
7
  10
-255.6453223101
  20
224.4251350907
  30
0.0000000000
  11
519.3546776899
  21
224.4251350907
  31
0.0000000000
   0
ARC
   8
LAYER1
   6
CONTINUOUS
  62
7
  10
-326.8706185034
  20
-3311.5405977236
  30
0.0000000000
  40
3834.7919368180
  50
84.8199802664
  51
88.9357588094
   0
LINE
   8
LAYER1
   6
CONTINUOUS
  62
7
  10
19.3546776899
  20
507.5898324869
  30
0.0000000000
  11
-255.6453223101
  21
507.5898324869
  31
0.0000000000
   0
ARC
   8
LAYER1
   6
CONTINUOUS
  62
7
  10
-2595.6876517418
  20
-713.1185989779
  30
0.0000000000
  40
5.0000000000
  50
180.0000000000
  51
270.0000000000
   0
LINE
   8
LAYER1
   6
CONTINUOUS
  62
7
  10
-2600.6876517418
  20
-713.1185989779
  30
0.0000000000
  11
-2600.6876517418
  21
-456.5779819552
  31
0.0000000000
   0
LINE
   8
LAYER1
   6
CONTINUOUS
  62
7
  10
-2594.0049735320
  20
-718.1185989779
  30
0.0000000000
  11
-2594.0049735319
  21
-456.5779819552
  31
0.0000000000
   0
LINE
   8
LAYER1
   6
CONTINUOUS
  62
7
  10
-2594.0049735320
  20
-195.0373649326
  30
0.0000000000
  11
-2594.0049735319
  21
-456.5779819552
  31
0.0000000000
   0
LINE
   8
LAYER1
   6
CONTINUOUS
  62
7
  10
-2600.6876517418
  20
-200.0373649326
  30
0.0000000000
  11
-2600.6876517418
  21
-456.5779819552
  31
0.0000000000
   0
ARC
   8
LAYER1
   6
CONTINUOUS
  62
7
  10
-2595.6876517418
  20
-200.0373649326
  30
0.0000000000
  40
5.0000000000
  50
90.0000000000
  51
180.0000000000
   0
LINE
   8
LAYER1
   6
CONTINUOUS
  62
7
  10
-1912.9470022977
  20
-676.5779819552
  30
0.0000000000
  11
-1912.9470022977
  21
-456.5779819552
  31
0.0000000000
   0
ARC
   8
LAYER1
   6
CONTINUOUS
  62
7
  10
-1958.0455905546
  20
-694.0779819552
  30
0.0000000000
  40
22.5000000000
  50
236.2510114041
  51
33.7489885959
   0
LINE
   8
LAYER1
   6
CONTINUOUS
  62
7
  10
-2500.5455905546
  20
-195.0373649326
  30
0.0000000000
  11
-2449.8870648029
  21
-231.5779819552
  31
0.0000000000
   0
LINE
   8
LAYER1
   6
CONTINUOUS
  62
7
  10
-2500.5455905546
  20
-96.5515480903
  30
0.0000000000
  11
-2500.5455905546
  21
-195.0373649326
  31
0.0000000000
   0
ARC
   8
LAYER1
   6
CONTINUOUS
  62
7
  10
-2495.5455905546
  20
-96.5515480903
  30
0.0000000000
  40
5.0000000000
  50
90.0000000000
  51
180.0000000000
   0
LINE
   8
LAYER1
   6
CONTINUOUS
  62
7
  10
-2449.8870648029
  20
-231.5779819552
  30
0.0000000000
  11
-1917.9470022977
  21
-231.5779819552
  31
0.0000000000
   0
LINE
   8
LAYER1
   6
CONTINUOUS
  62
7
  10
-2449.8870648029
  20
-681.5779819552
  30
0.0000000000
  11
-2449.8870648029
  21
-456.5779819552
  31
0.0000000000
   0
LINE
   8
LAYER1
   6
CONTINUOUS
  62
7
  10
-2449.8870648029
  20
-681.5779819552
  30
0.0000000000
  11
-1917.9470022977
  21
-681.5779819552
  31
0.0000000000
   0
LINE
   8
LAYER1
   6
CONTINUOUS
  62
7
  10
-2449.8870648029
  20
-231.5779819552
  30
0.0000000000
  11
-2449.8870648029
  21
-456.5779819552
  31
0.0000000000
   0
ARC
   8
LAYER1
   6
CONTINUOUS
  62
7
  10
-1975.5455905546
  20
-816.6044158202
  30
0.0000000000
  40
5.0000000000
  50
270.0000000000
  51
0.0000000000
   0
LINE
   8
LAYER1
   6
CONTINUOUS
  62
7
  10
-1970.5455905546
  20
-816.6044158202
  30
0.0000000000
  11
-1970.5455905546
  21
-681.5779819552
  31
0.0000000000
   0
ARC
   8
LAYER1
   6
CONTINUOUS
  62
7
  10
-1917.9470022977
  20
-676.5779819552
  30
0.0000000000
  40
5.0000000000
  50
270.0000000000
  51
0.0000000000
   0
CIRCLE
   8
LAYER1
   6
CONTINUOUS
  62
7
  10
-1958.0455905546
  20
-694.0779819552
  30
0.0000000000
  40
12.5000000000
   0
ARC
   8
LAYER1
   6
CONTINUOUS
  62
7
  10
-2513.0455905546
  20
-182.5373649326
  30
0.0000000000
  40
22.5000000000
  50
56.2510114041
  51
213.7489885959
   0
ENDSEC
   0
EOF
